  0
SECTION
  2
HEADER
  9
$ACADVER
  1
AC1003
  9
$INSBASE
 10
0.000000
 20
0.000000
  9
$EXTMIN
 10
0.000000
 20
0.000000
  9
$EXTMAX
 10
420.000000
 20
297.000000
  9
$LIMMIN
 10
0.000000
 20
0.000000
  9
$LIMMAX
 10
420.000000
 20
297.000000
  9
$VIEWCTR
 10
210.000000
 20
148.500000
  9
$VIEWSIZE
 40
297.000000
  9
$PEXTMIN
 10
0.000000
 20
0.000000
 30
0.000000
  9
$PEXTMAX
 10
420.000000
 20
297.000000
 30
0.000000
  9
$SNAPMODE
 70
     0
  9
$SNAPUNIT
 10
1.000000
 20
1.000000
  9
$SNAPBASE
 10
0.000000
 20
0.000000
  9
$SNAPANG
 50
0.000000
  9
$SNAPISOPAIR
 70
     0
  9
$SNAPSTYLE
 70
     0
  9
$GRIDMODE
 70
     0
  9
$GRIDUNIT
 10
0.000000
 20
0.000000
  9
$ORTHOMODE
 70
     0
  9
$REGENMODE
 70
     1
  9
$FILLMODE
 70
     1
  9
$QTEXTMODE
 70
     0
  9
$DRAGMODE
 70
     2
  9
$LTSCALE
 40
0.250000
  9
$OSMODE
 70
     0
  9
$ATTMODE
 70
     1
  9
$TEXTSIZE
 40
0.200000
  9
$TRACEWID
 40
0.050000
  9
$TEXTSTYLE
  7
STANDARD
  9
$CLAYER
  8
0
  9
$CELTYPE
  6
BYLAYER
  9
$CECOLOR
 62
   256
  9
$DIMSCALE
 40
1.000000
  9
$DIMASZ
 40
1.000000
  9
$DIMEXO
 40
0.000000
  9
$DIMDLI
 40
0.500000
  9
$DIMRND
 40
0.000000
  9
$DIMDLE
 40
0.000000
  9
$DIMEXE
 40
0.000000
  9
$DIMTP
 40
0.000000
  9
$DIMTM
 40
0.000000
  9
$DIMTXT
 40
0.180000
  9
$DIMCEN
 40
0.000000
  9
$DIMTSZ
 40
0.000000
  9
$DIMTOL
 70
     0
  9
$DIMLIM
 70
     0
  9
$DIMTIH
 70
     1
  9
$DIMTOH
 70
     1
  9
$DIMSE1
 70
     0
  9
$DIMSE2
 70
     0
  9
$DIMTAD
 70
     0
  9
$DIMZIN
 70
     0
  9
$DIMBLK
  1

  9
$DIMASO
 70
     0
  9
$DIMSHO
 70
     0
  9
$DIMPOST
  1

  9
$DIMAPOST
  1

  9
$DIMALT
 70
     0
  9
$DIMALTD
 70
     0
  9
$DIMALTF
 40
25.400000
  9
$DIMLFAC
 40
1.000000
  9
$DIMTOFL
 70
     0
  9
$DIMTVP
 40
0.000000
  9
$DIMTIX
 70
     0
  9
$DIMSOXD
 70
     0
  9
$DIMSAH
 70
     0
  9
$DIMBLKL
  1

  9
$DIMBLKR
  1

  9
$LUNITS
 70
     2
  9
$LUPREC
 70
     2
  9
$AXISMODE
 70
     0
  9
$AXISUNIT
 10
1.000000
 20
1.000000
  9
$SKETCHINC
 40
0.000000
  9
$FILLETRAD
 40
0.000000
  9
$AUNITS
 70
     1
  9
$AUPREC
 70
     2
  9
$MENU
  1
ACAD
  9
$ELEVATION
 40
0.000000
  9
$THICKNESS
 40
0.000000
  9
$VIEWDIR
 10
0.000000
 20
0.000000
 30
1.000000
  9
$LIMCHECK
 70
     1
  9
$BLIPMODE
 70
     1
  9
$CHAMFERA
 40
0.000000
  9
$CHAMFERB
 40
0.000000
  9
$FASTZOOM
 70
     1
  9
$SKPOLY
 70
     0
  9
$TDCREATE
 40
0.000000
  9
$TDUPDATE
 40
0.000000
  9
$TDINDWG
 40
0.000000
  9
$TDUSRTIMER
 40
0.000000
  9
$USRTIMER
 70
     1
  9
$ANGBASE
 50
0.000000
  9
$ANGDIR
 70
     0
  9
$PDMODE
 70
     0
  9
$PDSIZE
 40
0.000000
  9
$PLINEWID
 40
0.000000
  9
$COORDS
 70
     2
  9
$USERI1
 70
     0
  9
$USERI2
 70
     0
  9
$USERI3
 70
     0
  9
$USERI4
 70
     0
  9
$USERI5
 70
     0
  9
$USERR1
 40
0.000000
  9
$USERR2
 40
0.000000
  9
$USERR3
 40
0.000000
  9
$USERR4
 40
0.000000
  9
$USERR5
 40
0.000000
  0
ENDSEC
  0
SECTION
  2
TABLES
  0
TABLE
  2
LTYPE
 70
     5
  0
LTYPE
  2
CONTINUOUS
 70
    64
  3
Solid line
 72
    65
 73
     0
 40
0.0
  0
LTYPE
  2
HIDDEN
 70
    64
  3
------------------------
 72
    65
 73
     2
 40
12.6
 49
8.4
 49
-4.2
  0
LTYPE
  2
DOT
 70
    64
  3
････････････････････････
 72
    65
 73
     2
 40
8.0
 49
6.0
 49
-2.0
  0
LTYPE
  2
DASHDOT
 70
    64
  3
--･--･--･--･--･--･--･--
 72
    65
 73
     4
 40
50.5
 49
30.0
 49
-9.0
 49
2.5
 49
-9.0
  0
LTYPE
  2
DIVIDE
 70
    64
  3
--･･--･･--･･--･･--･･--
 72
    65
 73
     6
 40
58.0
 49
30.0
 49
-9.0
 49
2.5
 49
-5.0
 49
2.5
 49
-9.0
  0
ENDTAB
  0
TABLE
  2
LAYER
 70
2
  0
LAYER
  2
1
 70
64
 62
7
  6
CONTINUOUS
  0
LAYER
  2
15
 70
64
 62
96
  6
CONTINUOUS
  0
ENDTAB
  0
TABLE
  2
STYLE
 70
     2
  0
STYLE
  2
STANDARD
 70
    64
 40
0.0
 41
1.0
 50
0.0
 71
     0
 42
0.2
  3
TXT
  4

  0
STYLE
  2
KANJI
 70
    64
 40
0.0
 41
1.0
 50
0.0
 71
     0
 42
0.2
  3
TXT
  4
BIGFONT
  0
ENDTAB
  0
TABLE
  2
VIEW
 70
     0
  0
ENDTAB
  0
ENDSEC
  0
SECTION
  2
BLOCKS
  0
ENDSEC
  0
SECTION
  2
ENTITIES
  0
LINE
  8
1
 62
7
  6
CONTINUOUS
 10
284.782341
 20
183.212141
 11
284.782341
 21
185.212141
  0
TEXT
  8
15
 62
96
  6
CONTINUOUS
 10
350.500000
 20
217.250000
 40
3.000000
 41
0.833333
  1
制御装置より供給
  7
KANJI
 50
0.000000
 51
0.000000
  0
TEXT
  8
15
 62
96
  6
DIVIDE
 10
353.500000
 20
233.750000
 40
3.000000
 41
0.833333
  1
ダークグレー
  7
KANJI
 50
0.000000
 51
0.000000
  0
TEXT
  8
15
 62
96
  6
DIVIDE
 10
353.500000
 20
239.250000
 40
3.000000
 41
0.833333
  1
ライトグレー
  7
KANJI
 50
0.000000
 51
0.000000
  0
TEXT
  8
15
 62
96
  6
DIVIDE
 10
361.000000
 20
244.750000
 40
3.000000
 41
0.833333
  1
－
  7
KANJI
 50
0.000000
 51
0.000000
  0
TEXT
  8
15
 62
96
  6
CONTINUOUS
 10
311.500000
 20
217.250000
 40
3.000000
 41
0.833333
  1
入力電源
  7
KANJI
 50
0.000000
 51
0.000000
  0
TEXT
  8
15
 62
96
  6
DIVIDE
 10
313.000000
 20
222.750000
 40
3.000000
 41
0.833333
  1
重　量
  7
KANJI
 50
0.000000
 51
0.000000
  0
TEXT
  8
15
 62
96
  6
DIVIDE
 10
313.000000
 20
244.750000
 40
3.000000
 41
0.833333
  1
仕　上
  7
KANJI
 50
0.000000
 51
0.000000
  0
TEXT
  8
15
 62
96
  6
DIVIDE
 10
313.000000
 20
250.250000
 40
3.000000
 41
0.833333
  1
材　質
  7
KANJI
 50
0.000000
 51
0.000000
  0
LINE
  8
15
 62
96
  6
CONTINUOUS
 10
305.000000
 20
227.000000
 11
395.000000
 21
227.000000
  0
LINE
  8
15
 62
96
  6
CONTINUOUS
 10
305.000000
 20
221.500000
 11
395.000000
 21
221.500000
  0
LINE
  8
15
 62
96
  6
CONTINUOUS
 10
395.000000
 20
243.500000
 11
305.000000
 21
243.500000
  0
LINE
  8
15
 62
96
  6
CONTINUOUS
 10
305.000000
 20
249.000000
 11
395.000000
 21
249.000000
  0
TEXT
  8
15
 62
96
  6
CONTINUOUS
 10
352.000000
 20
261.250000
 40
3.000000
 41
0.833333
  1
０８０７００２
  7
KANJI
 50
0.000000
 51
0.000000
  0
LINE
  8
15
 62
96
  6
CONTINUOUS
 10
395.000000
 20
80.000021
 11
395.000000
 21
89.700016
  0
LINE
  8
15
 62
96
  6
CONTINUOUS
 10
394.996520
 20
113.896341
 11
394.996520
 21
116.027777
  0
LINE
  8
15
 62
96
  6
CONTINUOUS
 10
394.993039
 20
116.128370
 11
394.993039
 21
187.947759
  0
TEXT
  8
15
 62
96
  6
DIVIDE
 10
339.500000
 20
255.750000
 40
3.000000
 41
0.833333
  1
定　　　　　格
  7
KANJI
 50
0.000000
 51
0.000000
  0
TEXT
  8
15
 62
96
  6
DIVIDE
 10
310.000000
 20
261.250000
 40
3.000000
 41
0.833333
  1
商品コード
  7
KANJI
 50
0.000000
 51
0.000000
  0
LINE
  8
15
 62
96
  6
CONTINUOUS
 10
305.000000
 20
265.500000
 11
305.000000
 21
66.000007
  0
LINE
  8
15
 62
96
  6
CONTINUOUS
 10
305.000000
 20
254.500000
 11
395.000000
 21
254.500000
  0
LINE
  8
15
 62
96
  6
CONTINUOUS
 10
305.000000
 20
260.000000
 11
395.000000
 21
260.000000
  0
LINE
  8
15
 62
96
  6
CONTINUOUS
 10
330.000000
 20
265.500000
 11
330.000000
 21
260.000000
  0
LINE
  8
15
 62
96
  6
CONTINUOUS
 10
394.996520
 20
97.208696
 11
394.996520
 21
137.781600
  0
LINE
  8
15
 62
96
  6
CONTINUOUS
 10
395.000000
 20
71.500007
 11
395.000000
 21
99.378469
  0
LINE
  8
15
 62
96
  6
CONTINUOUS
 10
395.000000
 20
71.493210
 11
395.000000
 21
99.124646
  0
LINE
  8
15
 62
96
  6
CONTINUOUS
 10
394.996520
 20
109.896341
 11
394.996520
 21
137.527777
  0
LINE
  8
15
 62
96
  6
CONTINUOUS
 10
394.993039
 20
137.628370
 11
394.993039
 21
197.047759
  0
LINE
  8
15
 62
96
  6
CONTINUOUS
 10
395.000000
 20
265.500000
 11
395.000000
 21
8.500000
  0
LINE
  8
15
 62
96
  6
CONTINUOUS
 10
10.000000
 20
265.500000
 11
395.000000
 21
265.500000
  0
LINE
  8
15
 62
96
  6
CONTINUOUS
 10
10.000000
 20
8.500000
 11
395.000000
 21
8.500000
  0
LINE
  8
15
 62
96
  6
CONTINUOUS
 10
10.000000
 20
265.500000
 11
10.000000
 21
8.500000
  0
LINE
  8
15
 62
96
  6
CONTINUOUS
 10
395.000000
 20
92.500021
 11
395.000000
 21
80.500016
  0
TEXT
  8
15
 62
96
  6
DIVIDE
 10
358.000000
 20
250.250000
 40
3.000000
 41
0.833333
  1
樹　脂
  7
KANJI
 50
0.000000
 51
0.000000
  0
LINE
  8
15
 62
96
  6
CONTINUOUS
 10
330.000000
 20
254.500000
 11
330.000000
 21
216.000000
  0
LINE
  8
15
 62
96
  6
CONTINUOUS
 10
359.510597
 20
14.056925
 11
347.008917
 21
14.056925
  0
TEXT
  8
15
 62
96
  6
CONTINUOUS
 10
329.190061
 20
13.043424
 40
1.805635
 41
1.018519
  1
出入管理システム
  7
KANJI
 50
0.000000
 51
0.000000
  0
TEXT
  8
15
 62
96
  6
CONTINUOUS
 10
329.260839
 20
9.150595
 40
3.611271
 41
1.782407
  1
株式会社
  7
KANJI
 50
0.000000
 51
0.000000
  0
LINE
  8
15
 62
96
  6
CONTINUOUS
 10
309.307566
 20
9.220295
 11
312.484333
 21
9.220295
  0
LINE
  8
15
 62
96
  6
CONTINUOUS
 10
328.001202
 20
13.080937
 11
328.001202
 21
14.300086
  0
LINE
  8
15
 62
96
  6
CONTINUOUS
 10
326.680462
 20
13.080937
 11
328.001202
 21
13.080937
  0
LINE
  8
15
 62
96
  6
CONTINUOUS
 10
326.680462
 20
9.220295
 11
326.680462
 21
13.080937
  0
LINE
  8
15
 62
96
  6
CONTINUOUS
 10
325.258119
 20
9.220295
 11
326.680462
 21
9.220295
  0
LINE
  8
15
 62
96
  6
CONTINUOUS
 10
324.403402
 20
9.220295
 11
322.616627
 21
9.220295
  0
LINE
  8
15
 62
96
  6
CONTINUOUS
 10
315.200130
 20
9.220295
 11
319.568748
 21
9.220295
  0
LINE
  8
15
 62
96
  6
CONTINUOUS
 10
315.200130
 20
11.353807
 11
315.200130
 21
9.220295
  0
LINE
  8
15
 62
96
  6
CONTINUOUS
 10
312.484333
 20
9.220295
 11
317.435238
 21
14.122181
  0
LINE
  8
15
 62
96
  6
CONTINUOUS
 10
317.435238
 20
14.122181
 11
317.435238
 21
11.353807
  0
LINE
  8
15
 62
96
  6
CONTINUOUS
 10
317.435238
 20
11.353807
 11
315.200130
 21
11.353807
  0
LINE
  8
15
 62
96
  6
CONTINUOUS
 10
319.568748
 20
12.064978
 11
322.616627
 21
9.220295
  0
ARC
  8
15
 62
96
  6
CONTINUOUS
 10
322.007051
 20
12.572957
 40
0.507980
 50
-90.000000
 51
90.000000
  0
LINE
  8
15
 62
96
  6
CONTINUOUS
 10
319.568748
 20
12.064978
 11
322.007051
 21
12.064978
  0
LINE
  8
15
 62
96
  6
CONTINUOUS
 10
319.975133
 20
13.080937
 11
322.007051
 21
13.080937
  0
LINE
  8
15
 62
96
  6
CONTINUOUS
 10
319.975133
 20
14.300086
 11
319.975133
 21
13.080937
  0
LINE
  8
15
 62
96
  6
CONTINUOUS
 10
319.975133
 20
14.300086
 11
322.392047
 21
14.300086
  0
ARC
  8
15
 62
96
  6
CONTINUOUS
 10
322.199547
 20
12.572957
 40
1.737823
 50
-76.055153
 51
83.640296
  0
LINE
  8
15
 62
96
  6
CONTINUOUS
 10
322.616627
 20
10.887953
 11
324.403402
 21
9.220295
  0
LINE
  8
15
 62
96
  6
CONTINUOUS
 10
328.001202
 20
14.300086
 11
323.937370
 21
14.300086
  0
LINE
  8
15
 62
96
  6
CONTINUOUS
 10
323.937370
 20
14.300086
 11
323.937370
 21
13.080937
  0
LINE
  8
15
 62
96
  6
CONTINUOUS
 10
323.937370
 20
13.080937
 11
325.258119
 21
13.080937
  0
LINE
  8
15
 62
96
  6
CONTINUOUS
 10
325.258119
 20
13.080937
 11
325.258119
 21
9.220295
  0
TEXT
  8
15
 62
96
  6
CONTINUOUS
 10
305.436376
 20
41.396783
 40
2.507827
 41
0.900000
  1
製品名
  7
KANJI
 50
0.000000
 51
0.000000
  0
TEXT
  8
15
 62
96
  6
CONTINUOUS
 10
305.752107
 20
32.495801
 40
2.507827
 41
0.900000
  1
縮尺（Ａ３）
  7
KANJI
 50
0.000000
 51
0.000000
  0
LINE
  8
15
 62
96
  6
CONTINUOUS
 10
320.050962
 20
26.395339
 11
320.050962
 21
20.376554
  0
LINE
  8
15
 62
96
  6
CONTINUOUS
 10
319.568748
 20
9.220295
 11
319.568748
 21
19.379878
  0
LINE
  8
15
 62
96
  6
CONTINUOUS
 10
319.568748
 20
19.379878
 11
309.307566
 21
9.220295
  0
LINE
  8
15
 62
96
  6
CONTINUOUS
 10
319.301336
 20
19.115115
 11
319.568748
 21
19.115115
  0
TEXT
  8
15
 62
96
  6
CONTINUOUS
 10
361.689737
 20
8.727073
 40
10.031308
 41
0.833333
  1
アート
  7
KANJI
 50
0.000000
 51
0.000000
  0
TEXT
  8
15
 62
96
  6
CONTINUOUS
 10
307.148299
 20
21.890678
 40
2.507827
 41
0.900000
  1
図面番号
  7
KANJI
 50
0.000000
 51
0.000000
  0
TEXT
  8
15
 62
96
  6
CONTINUOUS
 10
371.264442
 20
32.262486
 40
2.507827
 41
0.900000
  1
作図
  7
KANJI
 50
0.000000
 51
0.000000
  0
LINE
  8
15
 62
96
  6
CONTINUOUS
 10
320.050962
 20
35.423515
 11
320.050962
 21
26.395339
  0
LINE
  8
15
 62
96
  6
CONTINUOUS
 10
345.129232
 20
35.423515
 11
345.129232
 21
26.395341
  0
LINE
  8
15
 62
96
  6
CONTINUOUS
 10
370.207501
 20
35.423515
 11
370.207501
 21
26.395343
  0
LINE
  8
15
 62
96
  6
CONTINUOUS
 10
305.004000
 20
53.479876
 11
305.004000
 21
66.019011
  0
TEXT
  8
15
 62
96
  6
CONTINUOUS
 10
305.435854
 20
50.084849
 40
2.507827
 41
0.900000
  1
型　式
  7
KANJI
 50
0.000000
 51
0.000000
  0
TEXT
  8
15
 62
96
  6
CONTINUOUS
 10
311.222888
 20
54.232217
 40
3.009392
 41
0.944444
  1
図面履歴
  7
KANJI
 50
-0.000000
 51
0.000000
  0
LINE
  8
15
 62
96
  6
CONTINUOUS
 10
330.081747
 20
58.495523
 11
330.081747
 21
52.978304
  0
LINE
  8
15
 62
96
  6
CONTINUOUS
 10
350.165174
 20
26.393567
 11
350.165174
 21
20.376557
  0
LINE
  8
15
 62
96
  6
CONTINUOUS
 10
357.185020
 20
26.393572
 11
357.185020
 21
20.376562
  0
TEXT
  8
15
 62
96
  6
CONTINUOUS
 10
351.179709
 20
21.999081
 40
2.507087
 41
0.900000
  1
日付
  7
KANJI
 50
0.000000
 51
0.000000
  0
LINE
  8
15
 62
96
  6
CONTINUOUS
 10
383.251751
 20
26.393570
 11
383.251751
 21
20.376559
  0
LINE
  8
15
 62
96
  6
CONTINUOUS
 10
386.311089
 20
25.631415
 11
386.311089
 21
21.138714
  0
CIRCLE
  8
15
 62
96
  6
CONTINUOUS
 10
386.311089
 20
23.385064
 40
0.962722
  0
CIRCLE
  8
15
 62
96
  6
CONTINUOUS
 10
386.311089
 20
23.385064
 40
1.604536
  0
LINE
  8
15
 62
96
  6
CONTINUOUS
 10
388.957842
 20
24.347786
 11
388.957842
 21
22.422343
  0
LINE
  8
15
 62
96
  6
CONTINUOUS
 10
394.092358
 20
24.989600
 11
394.092358
 21
21.780528
  0
LINE
  8
15
 62
96
  6
CONTINUOUS
 10
388.957842
 20
24.347786
 11
394.092358
 21
24.989600
  0
LINE
  8
15
 62
96
  6
CONTINUOUS
 10
388.957842
 20
22.422343
 11
394.092358
 21
21.780528
  0
LINE
  8
15
 62
96
  6
CONTINUOUS
 10
384.064738
 20
23.385064
 11
394.639906
 21
23.385064
  0
TEXT
  8
15
 62
96
  6
CONTINUOUS
 10
320.764137
 20
32.590512
 40
2.507827
 41
0.900000
  1
承認
  7
KANJI
 50
0.000000
 51
0.000000
  0
TEXT
  8
15
 62
96
  6
CONTINUOUS
 10
345.842407
 20
32.590512
 40
2.507827
 41
0.900000
  1
検図
  7
KANJI
 50
0.000000
 51
0.000000
  0
TEXT
  8
15
 62
96
  6
CONTINUOUS
 10
355.477244
 20
27.965078
 40
5.015654
 41
0.900000
  1
辻
  7
KANJI
 50
0.000000
 51
0.000000
  0
TEXT
  8
15
 62
96
  6
CONTINUOUS
 10
327.467587
 20
27.965078
 40
5.015654
 41
0.900000
  1
仲代
  7
KANJI
 50
0.000000
 51
0.000000
  0
TEXT
  8
15
 62
96
  6
CONTINUOUS
 10
378.961634
 20
27.965078
 40
5.015654
 41
0.900000
  1
横谷
  7
KANJI
 50
0.000000
 51
0.000000
  0
LINE
  8
15
 62
96
  6
CONTINUOUS
 10
305.004000
 20
8.500000
 11
305.004000
 21
53.479876
  0
LINE
  8
15
 62
96
  6
CONTINUOUS
 10
395.000000
 20
20.376560
 11
305.004000
 21
20.376553
  0
LINE
  8
15
 62
96
  6
CONTINUOUS
 10
395.000000
 20
26.395345
 11
305.004000
 21
26.395338
  0
LINE
  8
15
 62
96
  6
CONTINUOUS
 10
305.004000
 20
35.423515
 11
395.000000
 21
35.423515
  0
LINE
  8
15
 62
96
  6
CONTINUOUS
 10
305.003477
 20
58.495523
 11
395.000000
 21
58.495523
  0
LINE
  8
15
 62
96
  6
CONTINUOUS
 10
305.003477
 20
52.978304
 11
395.000000
 21
52.978304
  0
LINE
  8
15
 62
96
  6
CONTINUOUS
 10
305.004000
 20
44.451692
 11
395.000000
 21
44.451699
  0
LINE
  8
15
 62
96
  6
CONTINUOUS
 10
305.003477
 20
52.978304
 11
395.000000
 21
52.978304
  0
LINE
  8
15
 62
96
  6
CONTINUOUS
 10
305.003477
 20
52.978304
 11
395.000000
 21
52.978304
  0
LINE
  8
15
 62
96
  6
CONTINUOUS
 10
305.004000
 20
44.451699
 11
395.000000
 21
44.451699
  0
TEXT
  8
15
 62
96
  6
CONTINUOUS
 10
349.933818
 20
54.239144
 40
3.009392
 41
0.566667
  1
G90000-01-03716
  7
KANJI
 50
0.000000
 51
0.000000
  0
TEXT
  8
15
 62
96
  6
CONTINUOUS
 10
334.595836
 20
45.956388
 40
5.015654
 41
0.900000
  1
Ｗ－９２０１
  7
KANJI
 50
0.000000
 51
0.000000
  0
TEXT
  8
15
 62
96
  6
CONTINUOUS
 10
331.958047
 20
37.364650
 40
5.015654
 41
0.900000
  1
ハンディライタ
  7
KANJI
 50
0.000000
 51
0.000000
  0
LINE
  8
1
 62
7
  6
CONTINUOUS
 10
262.282341
 20
160.212141
 11
272.282341
 21
160.212141
  0
LINE
  8
1
 62
7
  6
CONTINUOUS
 10
172.282341
 20
215.163965
 11
172.282341
 21
220.212141
  0
LINE
  8
1
 62
7
  6
CONTINUOUS
 10
172.282341
 20
202.212141
 11
172.282341
 21
214.064361
  0
LINE
  8
1
 62
7
  6
CONTINUOUS
 10
162.282341
 20
215.288203
 11
162.282341
 21
220.212141
  0
LINE
  8
1
 62
7
  6
CONTINUOUS
 10
162.282341
 20
202.212141
 11
162.282341
 21
214.188598
  0
LINE
  8
1
 62
7
  6
CONTINUOUS
 10
279.782341
 20
185.212141
 11
254.782341
 21
185.212141
  0
ARC
  8
1
 62
7
  6
CONTINUOUS
 10
274.782341
 20
165.212141
 40
5.000000
 50
-90.000000
 51
0.000000
  0
LINE
  8
1
 62
7
  6
CONTINUOUS
 10
279.782341
 20
165.212141
 11
279.782341
 21
183.212141
  0
LINE
  8
1
 62
7
  6
CONTINUOUS
 10
272.282341
 20
160.212141
 11
274.782341
 21
160.212141
  0
ARC
  8
1
 62
7
  6
CONTINUOUS
 10
259.782341
 20
165.212141
 40
5.000000
 50
180.000000
 51
-90.000000
  0
LINE
  8
1
 62
7
  6
CONTINUOUS
 10
262.282341
 20
160.212141
 11
259.782341
 21
160.212141
  0
LINE
  8
1
 62
7
  6
CONTINUOUS
 10
254.782341
 20
183.212141
 11
254.782341
 21
165.212141
  0
LINE
  8
1
 62
7
  6
CONTINUOUS
 10
279.782341
 20
185.212141
 11
279.782341
 21
194.212141
  0
LINE
  8
1
 62
7
  6
CONTINUOUS
 10
284.782341
 20
185.212141
 11
279.782341
 21
185.212141
  0
LINE
  8
1
 62
7
  6
CONTINUOUS
 10
279.782341
 20
183.212141
 11
284.782341
 21
183.212141
  0
LINE
  8
1
 62
7
  6
CONTINUOUS
 10
249.782341
 20
183.212141
 11
254.782341
 21
183.212141
  0
LINE
  8
1
 62
7
  6
CONTINUOUS
 10
249.782341
 20
185.212141
 11
249.782341
 21
183.212141
  0
LINE
  8
1
 62
7
  6
CONTINUOUS
 10
254.782341
 20
185.212141
 11
249.782341
 21
185.212141
  0
LINE
  8
1
 62
7
  6
CONTINUOUS
 10
254.782341
 20
194.212141
 11
254.782341
 21
185.212141
  0
LINE
  8
1
 62
7
  6
CONTINUOUS
 10
254.782341
 20
194.212141
 11
279.782341
 21
194.212141
  0
LINE
  8
1
 62
7
  6
CONTINUOUS
 10
262.282341
 20
120.212141
 11
262.282341
 21
160.212141
  0
LINE
  8
1
 62
7
  6
CONTINUOUS
 10
272.282341
 20
160.212141
 11
272.282341
 21
120.212141
  0
ARC
  8
1
 62
7
  6
CONTINUOUS
 10
242.282341
 20
120.212141
 40
20.000000
 50
-90.000000
 51
0.000000
  0
ARC
  8
1
 62
7
  6
CONTINUOUS
 10
242.282341
 20
120.212141
 40
20.000000
 50
180.000000
 51
-90.000000
  0
LINE
  8
1
 62
7
  6
CONTINUOUS
 10
222.282341
 20
120.212141
 11
222.282341
 21
220.212141
  0
ARC
  8
1
 62
7
  6
CONTINUOUS
 10
242.282341
 20
120.212141
 40
30.000000
 50
-90.000000
 51
-0.000000
  0
ARC
  8
1
 62
7
  6
CONTINUOUS
 10
242.282341
 20
120.212141
 40
30.000000
 50
180.000000
 51
-90.000000
  0
LINE
  8
1
 62
7
  6
CONTINUOUS
 10
212.282341
 20
220.212141
 11
212.282341
 21
120.212141
  0
ARC
  8
1
 62
7
  6
CONTINUOUS
 10
192.282341
 20
220.212141
 40
30.000000
 50
0.000000
 51
90.000000
  0
ARC
  8
1
 62
7
  6
CONTINUOUS
 10
192.282341
 20
220.212141
 40
30.000000
 50
90.000000
 51
180.000000
  0
ARC
  8
1
 62
7
  6
CONTINUOUS
 10
192.282341
 20
220.212141
 40
20.000000
 50
90.000000
 51
180.000000
  0
ARC
  8
1
 62
7
  6
CONTINUOUS
 10
192.282341
 20
220.212141
 40
20.000000
 50
0.000000
 51
90.000000
  0
LINE
  8
1
 62
7
  6
CONTINUOUS
 10
173.532341
 20
193.212141
 11
161.032341
 21
193.212141
  0
LINE
  8
1
 62
7
  6
CONTINUOUS
 10
160.893452
 20
192.212141
 11
173.671230
 21
192.212141
  0
LINE
  8
1
 62
7
  6
CONTINUOUS
 10
173.949008
 20
190.212141
 11
160.615674
 21
190.212141
  0
LINE
  8
1
 62
7
  6
CONTINUOUS
 10
160.476785
 20
189.212141
 11
174.087896
 21
189.212141
  0
LINE
  8
1
 62
7
  6
CONTINUOUS
 10
174.365674
 20
187.212141
 11
160.199008
 21
187.212141
  0
LINE
  8
1
 62
7
  6
CONTINUOUS
 10
160.060119
 20
186.212141
 11
174.504563
 21
186.212141
  0
LINE
  8
1
 62
7
  6
CONTINUOUS
 10
159.782341
 20
184.212141
 11
174.782341
 21
184.212141
  0
LINE
  8
1
 62
7
  6
CONTINUOUS
 10
159.782341
 20
184.212141
 11
159.782341
 21
180.212141
  0
LINE
  8
1
 62
7
  6
CONTINUOUS
 10
174.782341
 20
184.212141
 11
174.782341
 21
180.212141
  0
LINE
  8
1
 62
7
  6
CONTINUOUS
 10
172.282341
 20
202.212141
 11
174.782341
 21
184.212141
  0
LINE
  8
1
 62
7
  6
CONTINUOUS
 10
162.282341
 20
202.212141
 11
172.282341
 21
202.212141
  0
LINE
  8
1
 62
7
  6
CONTINUOUS
 10
159.782341
 20
184.212141
 11
162.282341
 21
202.212141
  0
LINE
  8
1
 62
7
  6
CONTINUOUS
 10
71.532341
 20
193.212141
 11
84.032341
 21
193.212141
  0
LINE
  8
1
 62
7
  6
CONTINUOUS
 10
84.171230
 20
192.212141
 11
71.393452
 21
192.212141
  0
LINE
  8
1
 62
7
  6
CONTINUOUS
 10
71.115674
 20
190.212141
 11
84.449008
 21
190.212141
  0
LINE
  8
1
 62
7
  6
CONTINUOUS
 10
70.976785
 20
189.212141
 11
84.587896
 21
189.212141
  0
LINE
  8
1
 62
7
  6
CONTINUOUS
 10
84.865674
 20
187.212141
 11
70.699008
 21
187.212141
  0
LINE
  8
1
 62
7
  6
CONTINUOUS
 10
70.560119
 20
186.212141
 11
85.004563
 21
186.212141
  0
LINE
  8
1
 62
7
  6
CONTINUOUS
 10
165.282341
 20
184.212141
 11
165.282341
 21
60.212141
  0
LINE
  8
1
 62
7
  6
CONTINUOUS
 10
169.282341
 20
60.212141
 11
169.282341
 21
184.212141
  0
ARC
  8
1
 62
7
  6
CONTINUOUS
 10
164.782341
 20
179.212141
 40
5.000000
 50
90.000000
 51
180.000000
  0
LINE
  8
1
 62
7
  6
CONTINUOUS
 10
169.782341
 20
184.212141
 11
164.782341
 21
184.212141
  0
LINE
  8
1
 62
7
  6
CONTINUOUS
 10
159.782341
 20
179.212141
 11
159.782341
 21
65.212141
  0
ARC
  8
1
 62
7
  6
CONTINUOUS
 10
169.782341
 20
179.212141
 40
5.000000
 50
0.000000
 51
90.000000
  0
LINE
  8
1
 62
7
  6
CONTINUOUS
 10
174.782341
 20
65.212141
 11
174.782341
 21
179.212141
  0
ARC
  8
1
 62
7
  6
CONTINUOUS
 10
164.782341
 20
65.212141
 40
5.000000
 50
180.000000
 51
-90.000000
  0
LINE
  8
1
 62
7
  6
CONTINUOUS
 10
164.782341
 20
60.212141
 11
169.782341
 21
60.212141
  0
ARC
  8
1
 62
7
  6
CONTINUOUS
 10
169.782341
 20
65.212141
 40
5.000000
 50
-90.000000
 51
0.000000
  0
LINE
  8
1
 62
7
  6
CONTINUOUS
 10
82.782341
 20
214.212141
 11
82.782341
 21
202.212141
  0
LINE
  8
1
 62
7
  6
CONTINUOUS
 10
72.782341
 20
202.212141
 11
72.782341
 21
214.212141
  0
LINE
  8
1
 62
7
  6
CONTINUOUS
 10
82.782341
 20
202.212141
 11
85.282341
 21
184.212141
  0
LINE
  8
1
 62
7
  6
CONTINUOUS
 10
70.282341
 20
184.212141
 11
72.782341
 21
202.212141
  0
TEXT
  8
1
 62
7
  6
CONTINUOUS
 10
75.448364
 20
155.669393
 40
3.000000
 41
0.416667
  1
ＨＡＮＤＹ　ＷＲＩＴＥＲ
  7
KANJI
 50
0.000000
 51
0.000000
  0
TEXT
  8
1
 62
7
  6
CONTINUOUS
 10
76.071005
 20
151.669393
 40
3.500000
 41
0.595238
  1
Ｗ－９２０１
  7
KANJI
 50
0.000000
 51
0.000000
  0
LINE
  8
1
 62
7
  6
CONTINUOUS
 10
50.782341
 20
152.212141
 11
54.520985
 21
152.212141
  0
LINE
  8
1
 62
7
  6
CONTINUOUS
 10
62.776092
 20
164.087141
 11
62.858427
 21
164.087141
  0
LINE
  8
1
 62
7
  6
CONTINUOUS
 10
62.523591
 20
163.837139
 11
62.858427
 21
163.837139
  0
LINE
  8
1
 62
7
  6
CONTINUOUS
 10
62.271092
 20
163.587141
 11
62.858427
 21
163.587141
  0
LINE
  8
1
 62
7
  6
CONTINUOUS
 10
62.018591
 20
163.337139
 11
62.858427
 21
163.337139
  0
LINE
  8
1
 62
7
  6
CONTINUOUS
 10
61.766092
 20
163.087141
 11
62.858427
 21
163.087141
  0
LINE
  8
1
 62
7
  6
CONTINUOUS
 10
61.513590
 20
162.837139
 11
62.858427
 21
162.837139
  0
LINE
  8
1
 62
7
  6
CONTINUOUS
 10
61.261092
 20
162.587141
 11
62.858427
 21
162.587141
  0
LINE
  8
1
 62
7
  6
CONTINUOUS
 10
61.008590
 20
162.337139
 11
62.858427
 21
162.337139
  0
LINE
  8
1
 62
7
  6
CONTINUOUS
 10
60.756092
 20
162.087141
 11
62.858427
 21
162.087141
  0
LINE
  8
1
 62
7
  6
CONTINUOUS
 10
60.503590
 20
161.837139
 11
62.858427
 21
161.837139
  0
LINE
  8
1
 62
7
  6
CONTINUOUS
 10
60.251092
 20
161.587141
 11
62.858427
 21
161.587141
  0
LINE
  8
1
 62
7
  6
CONTINUOUS
 10
59.998593
 20
161.337139
 11
62.858427
 21
161.337139
  0
LINE
  8
1
 62
7
  6
CONTINUOUS
 10
59.746091
 20
161.087141
 11
62.858427
 21
161.087141
  0
LINE
  8
1
 62
7
  6
CONTINUOUS
 10
59.493593
 20
160.837139
 11
62.858427
 21
160.837139
  0
LINE
  8
1
 62
7
  6
CONTINUOUS
 10
59.241091
 20
160.587141
 11
62.858427
 21
160.587141
  0
LINE
  8
1
 62
7
  6
CONTINUOUS
 10
58.988590
 20
160.337139
 11
62.858427
 21
160.337139
  0
LINE
  8
1
 62
7
  6
CONTINUOUS
 10
58.736091
 20
160.087141
 11
62.858427
 21
160.087141
  0
LINE
  8
1
 62
7
  6
CONTINUOUS
 10
58.483593
 20
159.837139
 11
62.858427
 21
159.837139
  0
LINE
  8
1
 62
7
  6
CONTINUOUS
 10
58.231091
 20
159.587141
 11
62.858427
 21
159.587141
  0
LINE
  8
1
 62
7
  6
CONTINUOUS
 10
57.978592
 20
159.337140
 11
62.858427
 21
159.337140
  0
LINE
  8
1
 62
7
  6
CONTINUOUS
 10
57.726091
 20
159.087141
 11
62.858427
 21
159.087141
  0
LINE
  8
1
 62
7
  6
CONTINUOUS
 10
57.473592
 20
158.837140
 11
62.858427
 21
158.837140
  0
LINE
  8
1
 62
7
  6
CONTINUOUS
 10
57.221091
 20
158.587141
 11
62.858427
 21
158.587141
  0
LINE
  8
1
 62
7
  6
CONTINUOUS
 10
56.968592
 20
158.337140
 11
62.858427
 21
158.337140
  0
LINE
  8
1
 62
7
  6
CONTINUOUS
 10
63.336690
 20
158.087141
 11
66.633094
 21
158.087141
  0
LINE
  8
1
 62
7
  6
CONTINUOUS
 10
67.999733
 20
158.087141
 11
72.782342
 21
158.087141
  0
LINE
  8
1
 62
7
  6
CONTINUOUS
 10
56.716090
 20
158.087141
 11
62.858427
 21
158.087141
  0
LINE
  8
1
 62
7
  6
CONTINUOUS
 10
63.336690
 20
157.837140
 11
67.121846
 21
157.837140
  0
LINE
  8
1
 62
7
  6
CONTINUOUS
 10
60.347559
 20
157.837140
 11
62.858427
 21
157.837140
  0
LINE
  8
1
 62
7
  6
CONTINUOUS
 10
67.999733
 20
157.837140
 11
72.782342
 21
157.837140
  0
LINE
  8
1
 62
7
  6
CONTINUOUS
 10
56.463592
 20
157.837140
 11
60.202233
 21
157.837140
  0
LINE
  8
1
 62
7
  6
CONTINUOUS
 10
63.336690
 20
157.587141
 11
67.417339
 21
157.587141
  0
LINE
  8
1
 62
7
  6
CONTINUOUS
 10
60.347559
 20
157.587141
 11
62.858427
 21
157.587141
  0
LINE
  8
1
 62
7
  6
CONTINUOUS
 10
67.999733
 20
157.587141
 11
72.782342
 21
157.587141
  0
LINE
  8
1
 62
7
  6
CONTINUOUS
 10
56.211090
 20
157.587141
 11
59.949734
 21
157.587141
  0
LINE
  8
1
 62
7
  6
CONTINUOUS
 10
63.336690
 20
157.337140
 11
67.625456
 21
157.337140
  0
LINE
  8
1
 62
7
  6
CONTINUOUS
 10
60.347559
 20
157.337140
 11
62.858427
 21
157.337140
  0
LINE
  8
1
 62
7
  6
CONTINUOUS
 10
67.999733
 20
157.337140
 11
72.782342
 21
157.337140
  0
LINE
  8
1
 62
7
  6
CONTINUOUS
 10
55.958592
 20
157.337140
 11
59.697233
 21
157.337140
  0
LINE
  8
1
 62
7
  6
CONTINUOUS
 10
63.336690
 20
157.087141
 11
67.776386
 21
157.087141
  0
LINE
  8
1
 62
7
  6
CONTINUOUS
 10
60.347559
 20
157.087141
 11
62.858427
 21
157.087141
  0
LINE
  8
1
 62
7
  6
CONTINUOUS
 10
67.999733
 20
157.087141
 11
72.782342
 21
157.087141
  0
LINE
  8
1
 62
7
  6
CONTINUOUS
 10
55.706090
 20
157.087141
 11
59.444734
 21
157.087141
  0
LINE
  8
1
 62
7
  6
CONTINUOUS
 10
63.336690
 20
156.837140
 11
67.883606
 21
156.837140
  0
LINE
  8
1
 62
7
  6
CONTINUOUS
 10
60.347559
 20
156.837140
 11
62.858427
 21
156.837140
  0
LINE
  8
1
 62
7
  6
CONTINUOUS
 10
67.999733
 20
156.837140
 11
72.782342
 21
156.837140
  0
LINE
  8
1
 62
7
  6
CONTINUOUS
 10
55.453592
 20
156.837140
 11
59.192236
 21
156.837140
  0
LINE
  8
1
 62
7
  6
CONTINUOUS
 10
66.143993
 20
156.587141
 11
67.954157
 21
156.587141
  0
LINE
  8
1
 62
7
  6
CONTINUOUS
 10
60.347559
 20
156.587141
 11
62.858427
 21
156.587141
  0
LINE
  8
1
 62
7
  6
CONTINUOUS
 10
69.554080
 20
156.587141
 11
71.227994
 21
156.587141
  0
LINE
  8
1
 62
7
  6
CONTINUOUS
 10
55.201093
 20
156.587141
 11
58.939734
 21
156.587141
  0
LINE
  8
1
 62
7
  6
CONTINUOUS
 10
66.298283
 20
156.337140
 11
67.991853
 21
156.337140
  0
LINE
  8
1
 62
7
  6
CONTINUOUS
 10
60.347559
 20
156.337140
 11
62.858427
 21
156.337140
  0
LINE
  8
1
 62
7
  6
CONTINUOUS
 10
69.554080
 20
156.337140
 11
71.227994
 21
156.337140
  0
LINE
  8
1
 62
7
  6
CONTINUOUS
 10
54.948591
 20
156.337140
 11
58.687232
 21
156.337140
  0
LINE
  8
1
 62
7
  6
CONTINUOUS
 10
66.321630
 20
156.087141
 11
67.998511
 21
156.087141
  0
LINE
  8
1
 62
7
  6
CONTINUOUS
 10
60.347559
 20
156.087141
 11
62.858427
 21
156.087141
  0
LINE
  8
1
 62
7
  6
CONTINUOUS
 10
69.554080
 20
156.087141
 11
71.227994
 21
156.087141
  0
LINE
  8
1
 62
7
  6
CONTINUOUS
 10
54.696090
 20
156.087141
 11
58.434734
 21
156.087141
  0
LINE
  8
1
 62
7
  6
CONTINUOUS
 10
66.232550
 20
155.837140
 11
67.974437
 21
155.837140
  0
LINE
  8
1
 62
7
  6
CONTINUOUS
 10
60.347559
 20
155.837140
 11
62.858427
 21
155.837140
  0
LINE
  8
1
 62
7
  6
CONTINUOUS
 10
69.554080
 20
155.837140
 11
71.227994
 21
155.837140
  0
LINE
  8
1
 62
7
  6
CONTINUOUS
 10
54.443591
 20
155.837140
 11
58.182232
 21
155.837140
  0
LINE
  8
1
 62
7
  6
CONTINUOUS
 10
65.906182
 20
155.587142
 11
67.918507
 21
155.587142
  0
LINE
  8
1
 62
7
  6
CONTINUOUS
 10
60.347559
 20
155.587142
 11
62.858427
 21
155.587142
  0
LINE
  8
1
 62
7
  6
CONTINUOUS
 10
69.554080
 20
155.587142
 11
71.227994
 21
155.587142
  0
LINE
  8
1
 62
7
  6
CONTINUOUS
 10
54.191090
 20
155.587142
 11
57.929734
 21
155.587142
  0
LINE
  8
1
 62
7
  6
CONTINUOUS
 10
63.097172
 20
155.337140
 11
67.827864
 21
155.337140
  0
LINE
  8
1
 62
7
  6
CONTINUOUS
 10
60.347559
 20
155.337140
 11
62.858427
 21
155.337140
  0
LINE
  8
1
 62
7
  6
CONTINUOUS
 10
69.554080
 20
155.337140
 11
71.227994
 21
155.337140
  0
LINE
  8
1
 62
7
  6
CONTINUOUS
 10
53.938591
 20
155.337140
 11
57.677235
 21
155.337140
  0
LINE
  8
1
 62
7
  6
CONTINUOUS
 10
63.365028
 20
155.087142
 11
67.697100
 21
155.087142
  0
LINE
  8
1
 62
7
  6
CONTINUOUS
 10
60.347559
 20
155.087142
 11
62.858427
 21
155.087142
  0
LINE
  8
1
 62
7
  6
CONTINUOUS
 10
69.554080
 20
155.087142
 11
71.227994
 21
155.087142
  0
LINE
  8
1
 62
7
  6
CONTINUOUS
 10
53.686093
 20
155.087142
 11
57.424734
 21
155.087142
  0
LINE
  8
1
 62
7
  6
CONTINUOUS
 10
63.632884
 20
154.837140
 11
67.516171
 21
154.837140
  0
LINE
  8
1
 62
7
  6
CONTINUOUS
 10
60.347559
 20
154.837140
 11
62.858427
 21
154.837140
  0
LINE
  8
1
 62
7
  6
CONTINUOUS
 10
69.554080
 20
154.837140
 11
71.227994
 21
154.837140
  0
LINE
  8
1
 62
7
  6
CONTINUOUS
 10
53.433591
 20
154.837140
 11
57.172235
 21
154.837140
  0
LINE
  8
1
 62
7
  6
CONTINUOUS
 10
63.900741
 20
154.587142
 11
67.264450
 21
154.587142
  0
LINE
  8
1
 62
7
  6
CONTINUOUS
 10
57.717124
 20
154.587142
 11
62.858427
 21
154.587142
  0
LINE
  8
1
 62
7
  6
CONTINUOUS
 10
69.554080
 20
154.587142
 11
71.227994
 21
154.587142
  0
LINE
  8
1
 62
7
  6
CONTINUOUS
 10
53.181092
 20
154.587142
 11
56.919733
 21
154.587142
  0
LINE
  8
1
 62
7
  6
CONTINUOUS
 10
64.168600
 20
154.337140
 11
66.886225
 21
154.337140
  0
LINE
  8
1
 62
7
  6
CONTINUOUS
 10
57.717124
 20
154.337140
 11
62.858427
 21
154.337140
  0
LINE
  8
1
 62
7
  6
CONTINUOUS
 10
69.554080
 20
154.337140
 11
71.227994
 21
154.337140
  0
LINE
  8
1
 62
7
  6
CONTINUOUS
 10
52.928591
 20
154.337140
 11
56.667232
 21
154.337140
  0
LINE
  8
1
 62
7
  6
CONTINUOUS
 10
64.436456
 20
154.087142
 11
66.539261
 21
154.087142
  0
LINE
  8
1
 62
7
  6
CONTINUOUS
 10
57.717124
 20
154.087142
 11
62.858427
 21
154.087142
  0
LINE
  8
1
 62
7
  6
CONTINUOUS
 10
69.554080
 20
154.087142
 11
71.227994
 21
154.087142
  0
LINE
  8
1
 62
7
  6
CONTINUOUS
 10
52.676092
 20
154.087142
 11
56.414733
 21
154.087142
  0
LINE
  8
1
 62
7
  6
CONTINUOUS
 10
64.704313
 20
153.837140
 11
66.807118
 21
153.837140
  0
LINE
  8
1
 62
7
  6
CONTINUOUS
 10
57.717124
 20
153.837140
 11
62.858427
 21
153.837140
  0
LINE
  8
1
 62
7
  6
CONTINUOUS
 10
69.554080
 20
153.837140
 11
71.227994
 21
153.837140
  0
LINE
  8
1
 62
7
  6
CONTINUOUS
 10
52.423591
 20
153.837140
 11
56.162235
 21
153.837140
  0
LINE
  8
1
 62
7
  6
CONTINUOUS
 10
64.972172
 20
153.587142
 11
67.074977
 21
153.587142
  0
LINE
  8
1
 62
7
  6
CONTINUOUS
 10
57.717124
 20
153.587142
 11
62.858427
 21
153.587142
  0
LINE
  8
1
 62
7
  6
CONTINUOUS
 10
69.554080
 20
153.587142
 11
71.227994
 21
153.587142
  0
LINE
  8
1
 62
7
  6
CONTINUOUS
 10
52.171092
 20
153.587142
 11
55.909733
 21
153.587142
  0
LINE
  8
1
 62
7
  6
CONTINUOUS
 10
65.240028
 20
153.337140
 11
67.342834
 21
153.337140
  0
LINE
  8
1
 62
7
  6
CONTINUOUS
 10
57.717124
 20
153.337140
 11
62.858427
 21
153.337140
  0
LINE
  8
1
 62
7
  6
CONTINUOUS
 10
69.554080
 20
153.337140
 11
71.227994
 21
153.337140
  0
LINE
  8
1
 62
7
  6
CONTINUOUS
 10
51.918590
 20
153.337140
 11
55.657235
 21
153.337140
  0
LINE
  8
1
 62
7
  6
CONTINUOUS
 10
65.507885
 20
153.087142
 11
67.610690
 21
153.087142
  0
LINE
  8
1
 62
7
  6
CONTINUOUS
 10
57.717124
 20
153.087142
 11
62.858427
 21
153.087142
  0
LINE
  8
1
 62
7
  6
CONTINUOUS
 10
69.554080
 20
153.087142
 11
71.227994
 21
153.087142
  0
LINE
  8
1
 62
7
  6
CONTINUOUS
 10
51.666092
 20
153.087142
 11
55.404733
 21
153.087142
  0
LINE
  8
1
 62
7
  6
CONTINUOUS
 10
65.775741
 20
152.837140
 11
67.878546
 21
152.837140
  0
LINE
  8
1
 62
7
  6
CONTINUOUS
 10
57.717124
 20
152.837140
 11
62.858427
 21
152.837140
  0
LINE
  8
1
 62
7
  6
CONTINUOUS
 10
69.554080
 20
152.837140
 11
71.227994
 21
152.837140
  0
LINE
  8
1
 62
7
  6
CONTINUOUS
 10
51.413590
 20
152.837140
 11
55.152234
 21
152.837140
  0
LINE
  8
1
 62
7
  6
CONTINUOUS
 10
66.043601
 20
152.587142
 11
68.146406
 21
152.587142
  0
LINE
  8
1
 62
7
  6
CONTINUOUS
 10
57.717124
 20
152.587142
 11
62.858427
 21
152.587142
  0
LINE
  8
1
 62
7
  6
CONTINUOUS
 10
69.554080
 20
152.587142
 11
71.227994
 21
152.587142
  0
LINE
  8
1
 62
7
  6
CONTINUOUS
 10
51.161092
 20
152.587142
 11
54.899733
 21
152.587142
  0
LINE
  8
1
 62
7
  6
CONTINUOUS
 10
66.311457
 20
152.337140
 11
68.414262
 21
152.337140
  0
LINE
  8
1
 62
7
  6
CONTINUOUS
 10
57.717124
 20
152.337140
 11
62.858427
 21
152.337140
  0
LINE
  8
1
 62
7
  6
CONTINUOUS
 10
69.554080
 20
152.337140
 11
71.227994
 21
152.337140
  0
LINE
  8
1
 62
7
  6
CONTINUOUS
 10
50.908590
 20
152.337140
 11
54.647234
 21
152.337140
  0
LINE
  8
1
 62
7
  6
CONTINUOUS
 10
72.782342
 20
156.755620
 11
72.782342
 21
158.190401
  0
LINE
  8
1
 62
7
  6
CONTINUOUS
 10
71.227994
 20
156.755620
 11
72.782342
 21
156.755620
  0
LINE
  8
1
 62
7
  6
CONTINUOUS
 10
71.227994
 20
152.212141
 11
71.227994
 21
156.755620
  0
LINE
  8
1
 62
7
  6
CONTINUOUS
 10
69.554080
 20
152.212141
 11
71.227994
 21
152.212141
  0
LINE
  8
1
 62
7
  6
CONTINUOUS
 10
69.554080
 20
156.755620
 11
69.554080
 21
152.212141
  0
LINE
  8
1
 62
7
  6
CONTINUOUS
 10
67.999733
 20
156.755620
 11
69.554080
 21
156.755620
  0
LINE
  8
1
 62
7
  6
CONTINUOUS
 10
67.999733
 20
158.190401
 11
67.999733
 21
156.755620
  0
LINE
  8
1
 62
7
  6
CONTINUOUS
 10
72.782342
 20
158.190401
 11
67.999733
 21
158.190401
  0
LINE
  8
1
 62
7
  6
CONTINUOUS
 10
68.548190
 20
152.212141
 11
66.445385
 21
152.212141
  0
LINE
  8
1
 62
7
  6
CONTINUOUS
 10
66.445385
 20
154.174758
 11
68.548190
 21
152.212141
  0
ARC
  8
1
 62
7
  6
CONTINUOUS
 10
65.954537
 20
156.157793
 40
2.045193
 50
-76.055153
 51
83.640296
  0
LINE
  8
1
 62
7
  6
CONTINUOUS
 10
63.336690
 20
158.190401
 11
66.181085
 21
158.190401
  0
LINE
  8
1
 62
7
  6
CONTINUOUS
 10
63.336690
 20
158.190401
 11
63.336690
 21
156.755620
  0
LINE
  8
1
 62
7
  6
CONTINUOUS
 10
63.336690
 20
156.755620
 11
65.727995
 21
156.755620
  0
LINE
  8
1
 62
7
  6
CONTINUOUS
 10
62.858427
 20
155.559966
 11
65.727995
 21
155.559966
  0
ARC
  8
1
 62
7
  6
CONTINUOUS
 10
65.727995
 20
156.157793
 40
0.597827
 50
-90.000000
 51
90.000000
  0
LINE
  8
1
 62
7
  6
CONTINUOUS
 10
62.858427
 20
155.559966
 11
66.445385
 21
152.212141
  0
LINE
  8
1
 62
7
  6
CONTINUOUS
 10
62.858427
 20
152.212141
 11
62.858427
 21
164.168660
  0
LINE
  8
1
 62
7
  6
CONTINUOUS
 10
57.717124
 20
152.212141
 11
62.858427
 21
152.212141
  0
LINE
  8
1
 62
7
  6
CONTINUOUS
 10
57.717124
 20
154.723009
 11
57.717124
 21
152.212141
  0
LINE
  8
1
 62
7
  6
CONTINUOUS
 10
60.347559
 20
154.723009
 11
57.717124
 21
154.723009
  0
LINE
  8
1
 62
7
  6
CONTINUOUS
 10
60.347559
 20
157.981024
 11
60.347559
 21
154.723009
  0
LINE
  8
1
 62
7
  6
CONTINUOUS
 10
54.520985
 20
152.212141
 11
60.347559
 21
157.981024
  0
LINE
  8
1
 62
7
  6
CONTINUOUS
 10
62.858427
 20
164.168660
 11
50.782341
 21
152.212141
  0
LINE
  8
1
 62
7
  6
CONTINUOUS
 10
98.782341
 20
96.712141
 11
102.782341
 21
97.712141
  0
LINE
  8
1
 62
7
  6
CONTINUOUS
 10
102.782341
 20
95.712141
 11
98.782341
 21
96.712141
  0
LINE
  8
1
 62
7
  6
CONTINUOUS
 10
102.782341
 20
97.712141
 11
102.782341
 21
95.712141
  0
LINE
  8
1
 62
7
  6
CONTINUOUS
 10
102.782341
 20
111.212141
 11
98.782341
 21
112.212141
  0
LINE
  8
1
 62
7
  6
CONTINUOUS
 10
98.782341
 20
110.212141
 11
102.782341
 21
111.212141
  0
LINE
  8
1
 62
7
  6
CONTINUOUS
 10
98.782341
 20
112.212141
 11
98.782341
 21
110.212141
  0
TEXT
  8
1
 62
7
  6
CONTINUOUS
 10
99.072074
 20
123.914676
 40
3.500000
 41
0.928571
  1
Ｍ
  7
KANJI
 50
0.000000
 51
0.000000
  0
TEXT
  8
1
 62
7
  6
CONTINUOUS
 10
51.226666
 20
138.414676
 40
3.500000
 41
0.928571
  1
Ｆ１
  7
KANJI
 50
0.000000
 51
0.000000
  0
TEXT
  8
1
 62
7
  6
CONTINUOUS
 10
62.726666
 20
138.414676
 40
3.500000
 41
0.928571
  1
Ｆ２
  7
KANJI
 50
0.000000
 51
0.000000
  0
TEXT
  8
1
 62
7
  6
CONTINUOUS
 10
85.726666
 20
138.414676
 40
3.500000
 41
0.928571
  1
Ｆ４
  7
KANJI
 50
0.000000
 51
0.000000
  0
TEXT
  8
1
 62
7
  6
CONTINUOUS
 10
97.226666
 20
138.414676
 40
3.500000
 41
0.928571
  1
Ｆ５
  7
KANJI
 50
0.000000
 51
0.000000
  0
TEXT
  8
1
 62
7
  6
CONTINUOUS
 10
87.572074
 20
123.914676
 40
3.500000
 41
0.928571
  1
Ｆ
  7
KANJI
 50
0.000000
 51
0.000000
  0
TEXT
  8
1
 62
7
  6
CONTINUOUS
 10
64.572074
 20
123.914676
 40
3.500000
 41
0.928571
  1
Ｄ
  7
KANJI
 50
0.000000
 51
0.000000
  0
TEXT
  8
1
 62
7
  6
CONTINUOUS
 10
53.072074
 20
123.914676
 40
3.500000
 41
0.928571
  1
Ｃ
  7
KANJI
 50
0.000000
 51
0.000000
  0
TEXT
  8
1
 62
7
  6
CONTINUOUS
 10
87.572074
 20
109.414676
 40
3.500000
 41
0.928571
  1
Ｂ
  7
KANJI
 50
0.000000
 51
0.000000
  0
TEXT
  8
1
 62
7
  6
CONTINUOUS
 10
76.072074
 20
109.414676
 40
3.500000
 41
0.928571
  1
Ａ
  7
KANJI
 50
0.000000
 51
0.000000
  0
TEXT
  8
1
 62
7
  6
CONTINUOUS
 10
76.072074
 20
80.414676
 40
3.500000
 41
0.928571
  1
２
  7
KANJI
 50
0.000000
 51
0.000000
  0
TEXT
  8
1
 62
7
  6
CONTINUOUS
 10
64.572074
 20
109.414676
 40
3.500000
 41
0.928571
  1
９
  7
KANJI
 50
0.000000
 51
0.000000
  0
TEXT
  8
1
 62
7
  6
CONTINUOUS
 10
53.072074
 20
109.414676
 40
3.500000
 41
0.928571
  1
８
  7
KANJI
 50
0.000000
 51
0.000000
  0
TEXT
  8
1
 62
7
  6
CONTINUOUS
 10
87.572074
 20
94.914676
 40
3.500000
 41
0.928571
  1
７
  7
KANJI
 50
0.000000
 51
0.000000
  0
TEXT
  8
1
 62
7
  6
CONTINUOUS
 10
76.072074
 20
94.914676
 40
3.500000
 41
0.928571
  1
６
  7
KANJI
 50
0.000000
 51
0.000000
  0
TEXT
  8
1
 62
7
  6
CONTINUOUS
 10
64.572074
 20
94.914676
 40
3.500000
 41
0.928571
  1
５
  7
KANJI
 50
0.000000
 51
0.000000
  0
TEXT
  8
1
 62
7
  6
CONTINUOUS
 10
53.072074
 20
94.914676
 40
3.500000
 41
0.928571
  1
４
  7
KANJI
 50
0.000000
 51
0.000000
  0
TEXT
  8
1
 62
7
  6
CONTINUOUS
 10
87.572074
 20
80.414676
 40
3.500000
 41
0.928571
  1
３
  7
KANJI
 50
0.000000
 51
0.000000
  0
TEXT
  8
1
 62
7
  6
CONTINUOUS
 10
64.572074
 20
80.414676
 40
3.500000
 41
0.928571
  1
１
  7
KANJI
 50
0.000000
 51
0.000000
  0
TEXT
  8
1
 62
7
  6
CONTINUOUS
 10
53.072074
 20
80.414676
 40
3.500000
 41
0.928571
  1
０
  7
KANJI
 50
0.000000
 51
0.000000
  0
TEXT
  8
1
 62
7
  6
CONTINUOUS
 10
97.226666
 20
80.414676
 40
3.500000
 41
0.928571
  1
Ｅｎ
  7
KANJI
 50
0.000000
 51
0.000000
  0
TEXT
  8
1
 62
7
  6
CONTINUOUS
 10
74.226666
 20
138.414676
 40
3.500000
 41
0.928571
  1
Ｆ３
  7
KANJI
 50
0.000000
 51
0.000000
  0
TEXT
  8
1
 62
7
  6
CONTINUOUS
 10
76.072074
 20
123.914676
 40
3.500000
 41
0.928571
  1
Ｅ
  7
KANJI
 50
0.000000
 51
0.000000
  0
LINE
  8
1
 62
7
  6
CONTINUOUS
 10
104.782341
 20
89.462141
 11
50.782341
 21
89.462141
  0
LINE
  8
1
 62
7
  6
CONTINUOUS
 10
104.782341
 20
103.962141
 11
50.782341
 21
103.962141
  0
LINE
  8
1
 62
7
  6
CONTINUOUS
 10
104.782341
 20
118.462141
 11
50.782341
 21
118.462141
  0
LINE
  8
1
 62
7
  6
CONTINUOUS
 10
50.782341
 20
132.962141
 11
104.782341
 21
132.962141
  0
CIRCLE
  8
1
 62
7
  6
CONTINUOUS
 10
54.782341
 20
82.212141
 40
4.000000
  0
CIRCLE
  8
1
 62
7
  6
CONTINUOUS
 10
66.282341
 20
82.212141
 40
4.000000
  0
CIRCLE
  8
1
 62
7
  6
CONTINUOUS
 10
100.782341
 20
82.212141
 40
4.000000
  0
CIRCLE
  8
1
 62
7
  6
CONTINUOUS
 10
89.282341
 20
82.212141
 40
4.000000
  0
CIRCLE
  8
1
 62
7
  6
CONTINUOUS
 10
77.782341
 20
82.212141
 40
4.000000
  0
CIRCLE
  8
1
 62
7
  6
CONTINUOUS
 10
54.782341
 20
96.712141
 40
4.000000
  0
CIRCLE
  8
1
 62
7
  6
CONTINUOUS
 10
66.282341
 20
96.712141
 40
4.000000
  0
CIRCLE
  8
1
 62
7
  6
CONTINUOUS
 10
100.782341
 20
96.712141
 40
4.000000
  0
CIRCLE
  8
1
 62
7
  6
CONTINUOUS
 10
89.282341
 20
96.712141
 40
4.000000
  0
CIRCLE
  8
1
 62
7
  6
CONTINUOUS
 10
77.782341
 20
96.712141
 40
4.000000
  0
CIRCLE
  8
1
 62
7
  6
CONTINUOUS
 10
54.782341
 20
140.212141
 40
4.000000
  0
CIRCLE
  8
1
 62
7
  6
CONTINUOUS
 10
66.282341
 20
140.212141
 40
4.000000
  0
CIRCLE
  8
1
 62
7
  6
CONTINUOUS
 10
100.782341
 20
140.212141
 40
4.000000
  0
CIRCLE
  8
1
 62
7
  6
CONTINUOUS
 10
89.282341
 20
140.212141
 40
4.000000
  0
CIRCLE
  8
1
 62
7
  6
CONTINUOUS
 10
77.782341
 20
140.212141
 40
4.000000
  0
CIRCLE
  8
1
 62
7
  6
CONTINUOUS
 10
54.782341
 20
125.712141
 40
4.000000
  0
CIRCLE
  8
1
 62
7
  6
CONTINUOUS
 10
66.282341
 20
125.712141
 40
4.000000
  0
CIRCLE
  8
1
 62
7
  6
CONTINUOUS
 10
100.782341
 20
125.712141
 40
4.000000
  0
CIRCLE
  8
1
 62
7
  6
CONTINUOUS
 10
89.282341
 20
125.712141
 40
4.000000
  0
CIRCLE
  8
1
 62
7
  6
CONTINUOUS
 10
77.782341
 20
125.712141
 40
4.000000
  0
CIRCLE
  8
1
 62
7
  6
CONTINUOUS
 10
54.782341
 20
111.212141
 40
4.000000
  0
CIRCLE
  8
1
 62
7
  6
CONTINUOUS
 10
66.282341
 20
111.212141
 40
4.000000
  0
CIRCLE
  8
1
 62
7
  6
CONTINUOUS
 10
100.782341
 20
111.212141
 40
4.000000
  0
CIRCLE
  8
1
 62
7
  6
CONTINUOUS
 10
89.282341
 20
111.212141
 40
4.000000
  0
CIRCLE
  8
1
 62
7
  6
CONTINUOUS
 10
77.782341
 20
111.212141
 40
4.000000
  0
LINE
  8
1
 62
7
  6
CONTINUOUS
 10
52.782341
 20
72.212141
 11
102.782341
 21
72.212141
  0
ARC
  8
1
 62
7
  6
CONTINUOUS
 10
102.782341
 20
77.212141
 40
5.000000
 50
-90.000000
 51
0.000000
  0
LINE
  8
1
 62
7
  6
CONTINUOUS
 10
107.782341
 20
77.212141
 11
107.782341
 21
145.212141
  0
ARC
  8
1
 62
7
  6
CONTINUOUS
 10
52.782341
 20
77.212141
 40
5.000000
 50
180.000000
 51
-90.000000
  0
LINE
  8
1
 62
7
  6
CONTINUOUS
 10
47.782341
 20
145.212141
 11
47.782341
 21
77.212141
  0
LINE
  8
1
 62
7
  6
CONTINUOUS
 10
102.782341
 20
150.212141
 11
52.782341
 21
150.212141
  0
ARC
  8
1
 62
7
  6
CONTINUOUS
 10
102.782341
 20
145.212141
 40
5.000000
 50
0.000000
 51
90.000000
  0
ARC
  8
1
 62
7
  6
CONTINUOUS
 10
52.782341
 20
145.212141
 40
5.000000
 50
90.000000
 51
180.000000
  0
ARC
  8
1
 62
7
  6
CONTINUOUS
 10
105.782341
 20
174.212141
 40
10.000000
 50
0.000000
 51
90.000000
  0
LINE
  8
1
 62
7
  6
CONTINUOUS
 10
105.782341
 20
184.212141
 11
49.782341
 21
184.212141
  0
LINE
  8
1
 62
7
  6
CONTINUOUS
 10
115.782341
 20
70.212141
 11
115.782341
 21
174.212141
  0
ARC
  8
1
 62
7
  6
CONTINUOUS
 10
49.782341
 20
174.212141
 40
10.000000
 50
90.000000
 51
180.000000
  0
LINE
  8
1
 62
7
  6
CONTINUOUS
 10
39.782341
 20
174.212141
 11
39.782341
 21
70.212141
  0
ARC
  8
1
 62
7
  6
CONTINUOUS
 10
49.782341
 20
70.212141
 40
10.000000
 50
180.000000
 51
-90.000000
  0
LINE
  8
1
 62
7
  6
CONTINUOUS
 10
49.782341
 20
60.212141
 11
105.782341
 21
60.212141
  0
ARC
  8
1
 62
7
  6
CONTINUOUS
 10
105.782341
 20
70.212141
 40
10.000000
 50
-90.000000
 51
-0.000000
  0
TEXT
  8
15
 62
96
  6
CONTINUOUS
 10
307.846903
 20
27.909518
 40
3.009392
 41
0.833333
  1
１：１
  7
KANJI
 50
0.000000
 51
0.000000
  0
TEXT
  8
15
 62
96
  6
DIVIDE
 10
357.250000
 20
222.750000
 40
3.000000
 41
0.648148
  1
約150ｇ
  7
KANJI
 50
0.000000
 51
0.000000
  0
TEXT
  8
15
 62
96
  6
CONTINUOUS
 10
359.476519
 20
21.821055
 40
3.009392
 41
0.603448
  1
2007年09月10日
  7
KANJI
 50
0.000000
 51
0.000000
  0
TEXT
  8
15
 62
96
  6
CONTINUOUS
 10
323.127578
 20
21.639916
 40
3.509923
 41
0.500000
  1
G9000-01-07910
  7
KANJI
 50
0.000000
 51
0.000000
  0
LINE
  8
1
 62
7
  6
CONTINUOUS
 10
115.782341
 20
48.288161
 11
39.782341
 21
48.288161
  0
LINE
  8
1
 62
7
  6
CONTINUOUS
 10
115.782341
 20
46.288161
 11
115.782341
 21
65.855000
  0
LINE
  8
1
 62
7
  6
CONTINUOUS
 10
39.782341
 20
46.288161
 11
39.782341
 21
65.982000
  0
LINE
  8
1
 62
7
  6
CONTINUOUS
 10
115.782341
 20
48.288161
 11
113.464119
 21
47.666995
  0
LINE
  8
1
 62
7
  6
CONTINUOUS
 10
115.782341
 20
48.288161
 11
113.464119
 21
48.909327
  0
LINE
  8
1
 62
7
  6
CONTINUOUS
 10
39.782341
 20
48.288161
 11
42.100563
 21
48.909327
  0
LINE
  8
1
 62
7
  6
CONTINUOUS
 10
39.782341
 20
48.288161
 11
42.100563
 21
47.666995
  0
TEXT
  8
1
 62
7
  6
CONTINUOUS
 10
76.182341
 20
48.788161
 40
3.000000
 41
0.566667
  1
76
  7
KANJI
 50
0.000000
 51
0.000000
  0
LINE
  8
1
 62
7
  6
CONTINUOUS
 10
128.379365
 20
184.212141
 11
128.379365
 21
60.212881
  0
LINE
  8
1
 62
7
  6
CONTINUOUS
 10
130.379365
 20
184.212141
 11
110.194000
 21
184.212141
  0
LINE
  8
1
 62
7
  6
CONTINUOUS
 10
130.379365
 20
60.212881
 11
110.450000
 21
60.212881
  0
LINE
  8
1
 62
7
  6
CONTINUOUS
 10
128.379365
 20
184.212141
 11
129.000531
 21
181.893919
  0
LINE
  8
1
 62
7
  6
CONTINUOUS
 10
128.379365
 20
184.212141
 11
127.758199
 21
181.893919
  0
LINE
  8
1
 62
7
  6
CONTINUOUS
 10
128.379365
 20
60.212881
 11
127.758199
 21
62.531103
  0
LINE
  8
1
 62
7
  6
CONTINUOUS
 10
128.379365
 20
60.212881
 11
129.000531
 21
62.531103
  0
TEXT
  8
1
 62
7
  6
CONTINUOUS
 10
127.879365
 20
119.762511
 40
3.000000
 41
0.566667
  1
124
  7
KANJI
 50
90.000000
 51
0.000000
  0
LINE
  8
1
 62
7
  6
CONTINUOUS
 10
159.782341
 20
48.288161
 11
174.782341
 21
48.288161
  0
LINE
  8
1
 62
7
  6
CONTINUOUS
 10
159.782341
 20
46.288161
 11
159.782341
 21
60.968000
  0
LINE
  8
1
 62
7
  6
CONTINUOUS
 10
174.782341
 20
46.288161
 11
174.782341
 21
61.031000
  0
LINE
  8
1
 62
7
  6
CONTINUOUS
 10
159.782341
 20
48.288161
 11
162.100563
 21
48.909327
  0
LINE
  8
1
 62
7
  6
CONTINUOUS
 10
159.782341
 20
48.288161
 11
162.100563
 21
47.666995
  0
LINE
  8
1
 62
7
  6
CONTINUOUS
 10
174.782341
 20
48.288161
 11
172.464119
 21
47.666995
  0
LINE
  8
1
 62
7
  6
CONTINUOUS
 10
174.782341
 20
48.288161
 11
172.464119
 21
48.909327
  0
TEXT
  8
1
 62
7
  6
CONTINUOUS
 10
165.682341
 20
48.788161
 40
3.000000
 41
0.566667
  1
15
  7
KANJI
 50
0.000000
 51
0.000000
  0
LINE
  8
15
 62
96
  6
CONTINUOUS
 10
305.000000
 20
216.000000
 11
395.000000
 21
216.000000
  0
LINE
  8
1
 62
7
  6
CONTINUOUS
 10
317.500000
 20
243.500000
 11
317.500000
 21
227.000000
  0
TEXT
  8
15
 62
96
  6
DIVIDE
 10
319.683000
 20
233.750000
 40
3.000000
 41
0.833333
  1
パネル
  7
KANJI
 50
0.000000
 51
0.000000
  0
TEXT
  8
15
 62
96
  6
DIVIDE
 10
306.898000
 20
233.826000
 40
3.000000
 41
0.833333
  1
彩　色
  7
KANJI
 50
0.000000
 51
0.000000
  0
TEXT
  8
15
 62
96
  6
DIVIDE
 10
319.619000
 20
228.153000
 40
3.000000
 41
0.833333
  1
文　字
  7
KANJI
 50
0.000000
 51
0.000000
  0
TEXT
  8
15
 62
96
  6
DIVIDE
 10
319.619000
 20
239.153000
 40
3.000000
 41
0.833333
  1
本　体
  7
KANJI
 50
0.000000
 51
0.000000
  0
TEXT
  8
15
 62
96
  6
DIVIDE
 10
350.500000
 20
228.250000
 40
3.000000
 41
0.833333
  1
黒色（ＡＲＴ部）
  7
KANJI
 50
0.000000
 51
0.000000
  0
LINE
  8
15
 62
96
  6
CONTINUOUS
 10
317.500000
 20
232.500000
 11
395.000000
 21
232.500000
  0
LINE
  8
15
 62
96
  6
CONTINUOUS
 10
317.500000
 20
238.000000
 11
395.000000
 21
238.000000
  0
TEXT
  8
15
 62
96
  6
CONTINUOUS
 10
185.316829
 20
18.061676
 40
3.000000
 41
1.043762
  1
*　記載されている会社名、製品名は、登録商標または商標です。
  7
KANJI
 50
0.000000
 51
0.000000
  0
LINE
  8
1
 62
7
  6
CONTINUOUS
 10
70.282341
 20
212.996298
 11
70.295274
 21
213.008582
  0
LINE
  8
1
 62
7
  6
CONTINUOUS
 10
70.295274
 20
213.008582
 11
70.333734
 21
213.045091
  0
LINE
  8
1
 62
7
  6
CONTINUOUS
 10
70.333734
 20
213.045091
 11
70.396766
 21
213.104732
  0
LINE
  8
1
 62
7
  6
CONTINUOUS
 10
70.396766
 20
213.104732
 11
70.483003
 21
213.185540
  0
LINE
  8
1
 62
7
  6
CONTINUOUS
 10
70.483003
 20
213.185540
 11
70.590905
 21
213.284522
  0
LINE
  8
1
 62
7
  6
CONTINUOUS
 10
70.590905
 20
213.284522
 11
70.718977
 21
213.397571
  0
LINE
  8
1
 62
7
  6
CONTINUOUS
 10
70.718977
 20
213.397571
 11
70.865858
 21
213.519534
  0
LINE
  8
1
 62
7
  6
CONTINUOUS
 10
70.865858
 20
213.519534
 11
71.030235
 21
213.644473
  0
LINE
  8
1
 62
7
  6
CONTINUOUS
 10
71.030235
 20
213.644473
 11
71.210559
 21
213.766127
  0
LINE
  8
1
 62
7
  6
CONTINUOUS
 10
71.210559
 20
213.766127
 11
71.404635
 21
213.878539
  0
LINE
  8
1
 62
7
  6
CONTINUOUS
 10
71.404635
 20
213.878539
 11
71.609147
 21
213.976720
  0
LINE
  8
1
 62
7
  6
CONTINUOUS
 10
71.609147
 20
213.976720
 11
71.819276
 21
214.057255
  0
LINE
  8
1
 62
7
  6
CONTINUOUS
 10
71.819276
 20
214.057255
 11
72.028519
 21
214.118696
  0
LINE
  8
1
 62
7
  6
CONTINUOUS
 10
72.028519
 20
214.118696
 11
72.228803
 21
214.161664
  0
LINE
  8
1
 62
7
  6
CONTINUOUS
 10
72.228803
 20
214.161664
 11
72.410942
 21
214.188598
  0
LINE
  8
1
 62
7
  6
CONTINUOUS
 10
72.410942
 20
214.188598
 11
72.565396
 21
214.203202
  0
LINE
  8
1
 62
7
  6
CONTINUOUS
 10
72.565396
 20
214.203202
 11
72.683233
 21
214.209655
  0
LINE
  8
1
 62
7
  6
CONTINUOUS
 10
72.683233
 20
214.209655
 11
72.757146
 21
214.211756
  0
LINE
  8
1
 62
7
  6
CONTINUOUS
 10
72.757146
 20
214.211756
 11
72.782341
 21
214.212141
  0
LINE
  8
1
 62
7
  6
CONTINUOUS
 10
72.782341
 20
214.212141
 11
72.807703
 21
214.212364
  0
LINE
  8
1
 62
7
  6
CONTINUOUS
 10
72.807703
 20
214.212364
 11
72.884083
 21
214.212081
  0
LINE
  8
1
 62
7
  6
CONTINUOUS
 10
72.884083
 20
214.212081
 11
73.012189
 21
214.208684
  0
LINE
  8
1
 62
7
  6
CONTINUOUS
 10
73.012189
 20
214.208684
 11
73.192671
 21
214.198579
  0
LINE
  8
1
 62
7
  6
CONTINUOUS
 10
73.192671
 20
214.198579
 11
73.425439
 21
214.178129
  0
LINE
  8
1
 62
7
  6
CONTINUOUS
 10
73.425439
 20
214.178129
 11
73.708924
 21
214.144643
  0
LINE
  8
1
 62
7
  6
CONTINUOUS
 10
73.708924
 20
214.144643
 11
74.039420
 21
214.097169
  0
LINE
  8
1
 62
7
  6
CONTINUOUS
 10
74.039420
 20
214.097169
 11
74.410661
 21
214.036912
  0
LINE
  8
1
 62
7
  6
CONTINUOUS
 10
74.410661
 20
214.036912
 11
74.813715
 21
213.967175
  0
LINE
  8
1
 62
7
  6
CONTINUOUS
 10
74.813715
 20
213.967175
 11
75.237216
 21
213.892827
  0
LINE
  8
1
 62
7
  6
CONTINUOUS
 10
75.237216
 20
213.892827
 11
75.667915
 21
213.819439
  0
LINE
  8
1
 62
7
  6
CONTINUOUS
 10
75.667915
 20
213.819439
 11
76.091452
 21
213.752277
  0
LINE
  8
1
 62
7
  6
CONTINUOUS
 10
76.091452
 20
213.752277
 11
76.493225
 21
213.695391
  0
LINE
  8
1
 62
7
  6
CONTINUOUS
 10
76.493225
 20
213.695391
 11
76.859245
 21
213.651007
  0
LINE
  8
1
 62
7
  6
CONTINUOUS
 10
76.859245
 20
213.651007
 11
77.176864
 21
213.619354
  0
LINE
  8
1
 62
7
  6
CONTINUOUS
 10
77.176864
 20
213.619354
 11
77.435316
 21
213.598954
  0
LINE
  8
1
 62
7
  6
CONTINUOUS
 10
77.435316
 20
213.598954
 11
77.626062
 21
213.587285
  0
LINE
  8
1
 62
7
  6
CONTINUOUS
 10
77.626062
 20
213.587285
 11
77.742965
 21
213.581652
  0
LINE
  8
1
 62
7
  6
CONTINUOUS
 10
77.742965
 20
213.581652
 11
77.782341
 21
213.580024
  0
LINE
  8
1
 62
7
  6
CONTINUOUS
 10
77.782341
 20
213.580024
 11
77.821741
 21
213.578534
  0
LINE
  8
1
 62
7
  6
CONTINUOUS
 10
77.821741
 20
213.578534
 11
77.938989
 21
213.574907
  0
LINE
  8
1
 62
7
  6
CONTINUOUS
 10
77.938989
 20
213.574907
 11
78.131133
 21
213.571498
  0
LINE
  8
1
 62
7
  6
CONTINUOUS
 10
78.131133
 20
213.571498
 11
78.392965
 21
213.571682
  0
LINE
  8
1
 62
7
  6
CONTINUOUS
 10
78.392965
 20
213.571682
 11
78.716739
 21
213.579146
  0
LINE
  8
1
 62
7
  6
CONTINUOUS
 10
78.716739
 20
213.579146
 11
79.092002
 21
213.597127
  0
LINE
  8
1
 62
7
  6
CONTINUOUS
 10
79.092002
 20
213.597127
 11
79.505696
 21
213.627731
  0
LINE
  8
1
 62
7
  6
CONTINUOUS
 10
79.505696
 20
213.627731
 11
79.942645
 21
213.671488
  0
LINE
  8
1
 62
7
  6
CONTINUOUS
 10
79.942645
 20
213.671488
 11
80.386422
 21
213.727214
  0
LINE
  8
1
 62
7
  6
CONTINUOUS
 10
80.386422
 20
213.727214
 11
80.820536
 21
213.792187
  0
LINE
  8
1
 62
7
  6
CONTINUOUS
 10
80.820536
 20
213.792187
 11
81.229752
 21
213.862590
  0
LINE
  8
1
 62
7
  6
CONTINUOUS
 10
81.229752
 20
213.862590
 11
81.601323
 21
213.934113
  0
LINE
  8
1
 62
7
  6
CONTINUOUS
 10
81.601323
 20
213.934113
 11
81.925909
 21
214.002560
  0
LINE
  8
1
 62
7
  6
CONTINUOUS
 10
81.925909
 20
214.002560
 11
82.197987
 21
214.064361
  0
LINE
  8
1
 62
7
  6
CONTINUOUS
 10
82.197987
 20
214.064361
 11
82.415684
 21
214.116875
  0
LINE
  8
1
 62
7
  6
CONTINUOUS
 10
82.415684
 20
214.116875
 11
82.580040
 21
214.158455
  0
LINE
  8
1
 62
7
  6
CONTINUOUS
 10
82.580040
 20
214.158455
 11
82.693872
 21
214.188303
  0
LINE
  8
1
 62
7
  6
CONTINUOUS
 10
82.693872
 20
214.188303
 11
82.760460
 21
214.206191
  0
LINE
  8
1
 62
7
  6
CONTINUOUS
 10
82.760460
 20
214.206191
 11
82.782341
 21
214.212141
  0
LINE
  8
1
 62
7
  6
CONTINUOUS
 10
82.782341
 20
214.212141
 11
82.803957
 21
214.218056
  0
LINE
  8
1
 62
7
  6
CONTINUOUS
 10
82.803957
 20
214.218056
 11
82.866672
 21
214.235428
  0
LINE
  8
1
 62
7
  6
CONTINUOUS
 10
82.866672
 20
214.235428
 11
82.964407
 21
214.263195
  0
LINE
  8
1
 62
7
  6
CONTINUOUS
 10
82.964407
 20
214.263195
 11
83.088063
 21
214.299726
  0
LINE
  8
1
 62
7
  6
CONTINUOUS
 10
83.088063
 20
214.299726
 11
83.226848
 21
214.343023
  0
LINE
  8
1
 62
7
  6
CONTINUOUS
 10
83.226848
 20
214.343023
 11
83.369793
 21
214.390930
  0
LINE
  8
1
 62
7
  6
CONTINUOUS
 10
83.369793
 20
214.390930
 11
83.507145
 21
214.441351
  0
LINE
  8
1
 62
7
  6
CONTINUOUS
 10
83.507145
 20
214.441351
 11
83.631441
 21
214.492405
  0
LINE
  8
1
 62
7
  6
CONTINUOUS
 10
83.631441
 20
214.492405
 11
83.738075
 21
214.542536
  0
LINE
  8
1
 62
7
  6
CONTINUOUS
 10
83.738075
 20
214.542536
 11
83.825335
 21
214.590539
  0
LINE
  8
1
 62
7
  6
CONTINUOUS
 10
83.825335
 20
214.590539
 11
83.893950
 21
214.635524
  0
LINE
  8
1
 62
7
  6
CONTINUOUS
 10
83.893950
 20
214.635524
 11
83.946327
 21
214.676845
  0
LINE
  8
1
 62
7
  6
CONTINUOUS
 10
83.946327
 20
214.676845
 11
83.985655
 21
214.713998
  0
LINE
  8
1
 62
7
  6
CONTINUOUS
 10
83.985655
 20
214.713998
 11
84.015091
 21
214.746543
  0
LINE
  8
1
 62
7
  6
CONTINUOUS
 10
84.015091
 20
214.746543
 11
84.037186
 21
214.774046
  0
LINE
  8
1
 62
7
  6
CONTINUOUS
 10
84.037186
 20
214.774046
 11
84.053612
 21
214.796064
  0
LINE
  8
1
 62
7
  6
CONTINUOUS
 10
84.053612
 20
214.796064
 11
84.065201
 21
214.812171
  0
LINE
  8
1
 62
7
  6
CONTINUOUS
 10
84.065201
 20
214.812171
 11
84.072186
 21
214.822001
  0
LINE
  8
1
 62
7
  6
CONTINUOUS
 10
84.072186
 20
214.822001
 11
84.074530
 21
214.825307
  0
LINE
  8
1
 62
7
  6
CONTINUOUS
 10
160.282341
 20
212.996298
 11
160.295274
 21
213.008582
  0
LINE
  8
1
 62
7
  6
CONTINUOUS
 10
160.295274
 20
213.008582
 11
160.333734
 21
213.045091
  0
LINE
  8
1
 62
7
  6
CONTINUOUS
 10
160.333734
 20
213.045091
 11
160.396766
 21
213.104732
  0
LINE
  8
1
 62
7
  6
CONTINUOUS
 10
160.396766
 20
213.104732
 11
160.483003
 21
213.185540
  0
LINE
  8
1
 62
7
  6
CONTINUOUS
 10
160.483003
 20
213.185540
 11
160.590905
 21
213.284522
  0
LINE
  8
1
 62
7
  6
CONTINUOUS
 10
160.590905
 20
213.284522
 11
160.718977
 21
213.397571
  0
LINE
  8
1
 62
7
  6
CONTINUOUS
 10
160.718977
 20
213.397571
 11
160.865858
 21
213.519534
  0
LINE
  8
1
 62
7
  6
CONTINUOUS
 10
160.865858
 20
213.519534
 11
161.030235
 21
213.644473
  0
LINE
  8
1
 62
7
  6
CONTINUOUS
 10
161.030235
 20
213.644473
 11
161.210559
 21
213.766127
  0
LINE
  8
1
 62
7
  6
CONTINUOUS
 10
161.210559
 20
213.766127
 11
161.404635
 21
213.878539
  0
LINE
  8
1
 62
7
  6
CONTINUOUS
 10
161.404635
 20
213.878539
 11
161.609147
 21
213.976720
  0
LINE
  8
1
 62
7
  6
CONTINUOUS
 10
161.609147
 20
213.976720
 11
161.819276
 21
214.057255
  0
LINE
  8
1
 62
7
  6
CONTINUOUS
 10
161.819276
 20
214.057255
 11
162.028519
 21
214.118696
  0
LINE
  8
1
 62
7
  6
CONTINUOUS
 10
162.028519
 20
214.118696
 11
162.228803
 21
214.161664
  0
LINE
  8
1
 62
7
  6
CONTINUOUS
 10
162.228803
 20
214.161664
 11
162.410942
 21
214.188598
  0
LINE
  8
1
 62
7
  6
CONTINUOUS
 10
162.410942
 20
214.188598
 11
162.565396
 21
214.203202
  0
LINE
  8
1
 62
7
  6
CONTINUOUS
 10
162.565396
 20
214.203202
 11
162.683233
 21
214.209655
  0
LINE
  8
1
 62
7
  6
CONTINUOUS
 10
162.683233
 20
214.209655
 11
162.757146
 21
214.211756
  0
LINE
  8
1
 62
7
  6
CONTINUOUS
 10
162.757146
 20
214.211756
 11
162.782341
 21
214.212141
  0
LINE
  8
1
 62
7
  6
CONTINUOUS
 10
162.782341
 20
214.212141
 11
162.807703
 21
214.212364
  0
LINE
  8
1
 62
7
  6
CONTINUOUS
 10
162.807703
 20
214.212364
 11
162.884083
 21
214.212081
  0
LINE
  8
1
 62
7
  6
CONTINUOUS
 10
162.884083
 20
214.212081
 11
163.012189
 21
214.208684
  0
LINE
  8
1
 62
7
  6
CONTINUOUS
 10
163.012189
 20
214.208684
 11
163.192671
 21
214.198579
  0
LINE
  8
1
 62
7
  6
CONTINUOUS
 10
163.192671
 20
214.198579
 11
163.425439
 21
214.178129
  0
LINE
  8
1
 62
7
  6
CONTINUOUS
 10
163.425439
 20
214.178129
 11
163.708924
 21
214.144643
  0
LINE
  8
1
 62
7
  6
CONTINUOUS
 10
163.708924
 20
214.144643
 11
164.039420
 21
214.097169
  0
LINE
  8
1
 62
7
  6
CONTINUOUS
 10
164.039420
 20
214.097169
 11
164.410661
 21
214.036912
  0
LINE
  8
1
 62
7
  6
CONTINUOUS
 10
164.410661
 20
214.036912
 11
164.813715
 21
213.967175
  0
LINE
  8
1
 62
7
  6
CONTINUOUS
 10
164.813715
 20
213.967175
 11
165.237216
 21
213.892827
  0
LINE
  8
1
 62
7
  6
CONTINUOUS
 10
165.237216
 20
213.892827
 11
165.667915
 21
213.819439
  0
LINE
  8
1
 62
7
  6
CONTINUOUS
 10
165.667915
 20
213.819439
 11
166.091452
 21
213.752277
  0
LINE
  8
1
 62
7
  6
CONTINUOUS
 10
166.091452
 20
213.752277
 11
166.493225
 21
213.695391
  0
LINE
  8
1
 62
7
  6
CONTINUOUS
 10
166.493225
 20
213.695391
 11
166.859245
 21
213.651007
  0
LINE
  8
1
 62
7
  6
CONTINUOUS
 10
166.859245
 20
213.651007
 11
167.176864
 21
213.619354
  0
LINE
  8
1
 62
7
  6
CONTINUOUS
 10
167.176864
 20
213.619354
 11
167.435316
 21
213.598954
  0
LINE
  8
1
 62
7
  6
CONTINUOUS
 10
167.435316
 20
213.598954
 11
167.626062
 21
213.587285
  0
LINE
  8
1
 62
7
  6
CONTINUOUS
 10
167.626062
 20
213.587285
 11
167.742965
 21
213.581652
  0
LINE
  8
1
 62
7
  6
CONTINUOUS
 10
167.742965
 20
213.581652
 11
167.782341
 21
213.580024
  0
LINE
  8
1
 62
7
  6
CONTINUOUS
 10
167.782341
 20
213.580024
 11
167.821741
 21
213.578534
  0
LINE
  8
1
 62
7
  6
CONTINUOUS
 10
167.821741
 20
213.578534
 11
167.938989
 21
213.574907
  0
LINE
  8
1
 62
7
  6
CONTINUOUS
 10
167.938989
 20
213.574907
 11
168.131133
 21
213.571498
  0
LINE
  8
1
 62
7
  6
CONTINUOUS
 10
168.131133
 20
213.571498
 11
168.392965
 21
213.571682
  0
LINE
  8
1
 62
7
  6
CONTINUOUS
 10
168.392965
 20
213.571682
 11
168.716739
 21
213.579146
  0
LINE
  8
1
 62
7
  6
CONTINUOUS
 10
168.716739
 20
213.579146
 11
169.092002
 21
213.597127
  0
LINE
  8
1
 62
7
  6
CONTINUOUS
 10
169.092002
 20
213.597127
 11
169.505696
 21
213.627731
  0
LINE
  8
1
 62
7
  6
CONTINUOUS
 10
169.505696
 20
213.627731
 11
169.942645
 21
213.671488
  0
LINE
  8
1
 62
7
  6
CONTINUOUS
 10
169.942645
 20
213.671488
 11
170.386422
 21
213.727214
  0
LINE
  8
1
 62
7
  6
CONTINUOUS
 10
170.386422
 20
213.727214
 11
170.820536
 21
213.792187
  0
LINE
  8
1
 62
7
  6
CONTINUOUS
 10
170.820536
 20
213.792187
 11
171.229752
 21
213.862590
  0
LINE
  8
1
 62
7
  6
CONTINUOUS
 10
171.229752
 20
213.862590
 11
171.601323
 21
213.934113
  0
LINE
  8
1
 62
7
  6
CONTINUOUS
 10
171.601323
 20
213.934113
 11
171.925909
 21
214.002560
  0
LINE
  8
1
 62
7
  6
CONTINUOUS
 10
171.925909
 20
214.002560
 11
172.197987
 21
214.064361
  0
LINE
  8
1
 62
7
  6
CONTINUOUS
 10
172.197987
 20
214.064361
 11
172.415684
 21
214.116875
  0
LINE
  8
1
 62
7
  6
CONTINUOUS
 10
172.415684
 20
214.116875
 11
172.580040
 21
214.158455
  0
LINE
  8
1
 62
7
  6
CONTINUOUS
 10
172.580040
 20
214.158455
 11
172.693872
 21
214.188303
  0
LINE
  8
1
 62
7
  6
CONTINUOUS
 10
172.693872
 20
214.188303
 11
172.760460
 21
214.206191
  0
LINE
  8
1
 62
7
  6
CONTINUOUS
 10
172.760460
 20
214.206191
 11
172.782341
 21
214.212141
  0
LINE
  8
1
 62
7
  6
CONTINUOUS
 10
172.782341
 20
214.212141
 11
172.803957
 21
214.218056
  0
LINE
  8
1
 62
7
  6
CONTINUOUS
 10
172.803957
 20
214.218056
 11
172.866672
 21
214.235428
  0
LINE
  8
1
 62
7
  6
CONTINUOUS
 10
172.866672
 20
214.235428
 11
172.964407
 21
214.263195
  0
LINE
  8
1
 62
7
  6
CONTINUOUS
 10
172.964407
 20
214.263195
 11
173.088063
 21
214.299726
  0
LINE
  8
1
 62
7
  6
CONTINUOUS
 10
173.088063
 20
214.299726
 11
173.226848
 21
214.343023
  0
LINE
  8
1
 62
7
  6
CONTINUOUS
 10
173.226848
 20
214.343023
 11
173.369793
 21
214.390930
  0
LINE
  8
1
 62
7
  6
CONTINUOUS
 10
173.369793
 20
214.390930
 11
173.507145
 21
214.441351
  0
LINE
  8
1
 62
7
  6
CONTINUOUS
 10
173.507145
 20
214.441351
 11
173.631441
 21
214.492405
  0
LINE
  8
1
 62
7
  6
CONTINUOUS
 10
173.631441
 20
214.492405
 11
173.738075
 21
214.542536
  0
LINE
  8
1
 62
7
  6
CONTINUOUS
 10
173.738075
 20
214.542536
 11
173.825335
 21
214.590539
  0
LINE
  8
1
 62
7
  6
CONTINUOUS
 10
173.825335
 20
214.590539
 11
173.893950
 21
214.635524
  0
LINE
  8
1
 62
7
  6
CONTINUOUS
 10
173.893950
 20
214.635524
 11
173.946327
 21
214.676845
  0
LINE
  8
1
 62
7
  6
CONTINUOUS
 10
173.946327
 20
214.676845
 11
173.985655
 21
214.713998
  0
LINE
  8
1
 62
7
  6
CONTINUOUS
 10
173.985655
 20
214.713998
 11
174.015091
 21
214.746543
  0
LINE
  8
1
 62
7
  6
CONTINUOUS
 10
174.015091
 20
214.746543
 11
174.037186
 21
214.774046
  0
LINE
  8
1
 62
7
  6
CONTINUOUS
 10
174.037186
 20
214.774046
 11
174.053612
 21
214.796064
  0
LINE
  8
1
 62
7
  6
CONTINUOUS
 10
174.053612
 20
214.796064
 11
174.065201
 21
214.812171
  0
LINE
  8
1
 62
7
  6
CONTINUOUS
 10
174.065201
 20
214.812171
 11
174.072186
 21
214.822001
  0
LINE
  8
1
 62
7
  6
CONTINUOUS
 10
174.072186
 20
214.822001
 11
174.074530
 21
214.825307
  0
LINE
  8
1
 62
7
  6
CONTINUOUS
 10
160.282341
 20
212.996298
 11
160.295274
 21
213.008582
  0
LINE
  8
1
 62
7
  6
CONTINUOUS
 10
160.295274
 20
213.008582
 11
160.333734
 21
213.045091
  0
LINE
  8
1
 62
7
  6
CONTINUOUS
 10
160.333734
 20
213.045091
 11
160.396766
 21
213.104732
  0
LINE
  8
1
 62
7
  6
CONTINUOUS
 10
160.396766
 20
213.104732
 11
160.483003
 21
213.185540
  0
LINE
  8
1
 62
7
  6
CONTINUOUS
 10
160.483003
 20
213.185540
 11
160.590905
 21
213.284522
  0
LINE
  8
1
 62
7
  6
CONTINUOUS
 10
160.590905
 20
213.284522
 11
160.718977
 21
213.397571
  0
LINE
  8
1
 62
7
  6
CONTINUOUS
 10
160.718977
 20
213.397571
 11
160.865858
 21
213.519534
  0
LINE
  8
1
 62
7
  6
CONTINUOUS
 10
160.865858
 20
213.519534
 11
161.030235
 21
213.644473
  0
LINE
  8
1
 62
7
  6
CONTINUOUS
 10
161.030235
 20
213.644473
 11
161.210559
 21
213.766127
  0
LINE
  8
1
 62
7
  6
CONTINUOUS
 10
161.210559
 20
213.766127
 11
161.404635
 21
213.878539
  0
LINE
  8
1
 62
7
  6
CONTINUOUS
 10
161.404635
 20
213.878539
 11
161.609147
 21
213.976720
  0
LINE
  8
1
 62
7
  6
CONTINUOUS
 10
161.609147
 20
213.976720
 11
161.819276
 21
214.057255
  0
LINE
  8
1
 62
7
  6
CONTINUOUS
 10
161.819276
 20
214.057255
 11
162.028519
 21
214.118696
  0
LINE
  8
1
 62
7
  6
CONTINUOUS
 10
162.028519
 20
214.118696
 11
162.228803
 21
214.161664
  0
LINE
  8
1
 62
7
  6
CONTINUOUS
 10
162.228803
 20
214.161664
 11
162.410942
 21
214.188598
  0
LINE
  8
1
 62
7
  6
CONTINUOUS
 10
162.410942
 20
214.188598
 11
162.565396
 21
214.203202
  0
LINE
  8
1
 62
7
  6
CONTINUOUS
 10
162.565396
 20
214.203202
 11
162.683233
 21
214.209655
  0
LINE
  8
1
 62
7
  6
CONTINUOUS
 10
162.683233
 20
214.209655
 11
162.757146
 21
214.211756
  0
LINE
  8
1
 62
7
  6
CONTINUOUS
 10
162.757146
 20
214.211756
 11
162.782341
 21
214.212141
  0
LINE
  8
1
 62
7
  6
CONTINUOUS
 10
162.782341
 20
214.212141
 11
162.807703
 21
214.212364
  0
LINE
  8
1
 62
7
  6
CONTINUOUS
 10
162.807703
 20
214.212364
 11
162.884083
 21
214.212081
  0
LINE
  8
1
 62
7
  6
CONTINUOUS
 10
162.884083
 20
214.212081
 11
163.012189
 21
214.208684
  0
LINE
  8
1
 62
7
  6
CONTINUOUS
 10
163.012189
 20
214.208684
 11
163.192671
 21
214.198579
  0
LINE
  8
1
 62
7
  6
CONTINUOUS
 10
163.192671
 20
214.198579
 11
163.425439
 21
214.178129
  0
LINE
  8
1
 62
7
  6
CONTINUOUS
 10
163.425439
 20
214.178129
 11
163.708924
 21
214.144643
  0
LINE
  8
1
 62
7
  6
CONTINUOUS
 10
163.708924
 20
214.144643
 11
164.039420
 21
214.097169
  0
LINE
  8
1
 62
7
  6
CONTINUOUS
 10
164.039420
 20
214.097169
 11
164.410661
 21
214.036912
  0
LINE
  8
1
 62
7
  6
CONTINUOUS
 10
164.410661
 20
214.036912
 11
164.813715
 21
213.967175
  0
LINE
  8
1
 62
7
  6
CONTINUOUS
 10
164.813715
 20
213.967175
 11
165.237216
 21
213.892827
  0
LINE
  8
1
 62
7
  6
CONTINUOUS
 10
165.237216
 20
213.892827
 11
165.667915
 21
213.819439
  0
LINE
  8
1
 62
7
  6
CONTINUOUS
 10
165.667915
 20
213.819439
 11
166.091452
 21
213.752277
  0
LINE
  8
1
 62
7
  6
CONTINUOUS
 10
166.091452
 20
213.752277
 11
166.493225
 21
213.695391
  0
LINE
  8
1
 62
7
  6
CONTINUOUS
 10
166.493225
 20
213.695391
 11
166.859245
 21
213.651007
  0
LINE
  8
1
 62
7
  6
CONTINUOUS
 10
166.859245
 20
213.651007
 11
167.176864
 21
213.619354
  0
LINE
  8
1
 62
7
  6
CONTINUOUS
 10
167.176864
 20
213.619354
 11
167.435316
 21
213.598954
  0
LINE
  8
1
 62
7
  6
CONTINUOUS
 10
167.435316
 20
213.598954
 11
167.626062
 21
213.587285
  0
LINE
  8
1
 62
7
  6
CONTINUOUS
 10
167.626062
 20
213.587285
 11
167.742965
 21
213.581652
  0
LINE
  8
1
 62
7
  6
CONTINUOUS
 10
167.742965
 20
213.581652
 11
167.782341
 21
213.580024
  0
LINE
  8
1
 62
7
  6
CONTINUOUS
 10
167.782341
 20
213.580024
 11
167.821741
 21
213.578534
  0
LINE
  8
1
 62
7
  6
CONTINUOUS
 10
167.821741
 20
213.578534
 11
167.938989
 21
213.574907
  0
LINE
  8
1
 62
7
  6
CONTINUOUS
 10
167.938989
 20
213.574907
 11
168.131133
 21
213.571498
  0
LINE
  8
1
 62
7
  6
CONTINUOUS
 10
168.131133
 20
213.571498
 11
168.392965
 21
213.571682
  0
LINE
  8
1
 62
7
  6
CONTINUOUS
 10
168.392965
 20
213.571682
 11
168.716739
 21
213.579146
  0
LINE
  8
1
 62
7
  6
CONTINUOUS
 10
168.716739
 20
213.579146
 11
169.092002
 21
213.597127
  0
LINE
  8
1
 62
7
  6
CONTINUOUS
 10
169.092002
 20
213.597127
 11
169.505696
 21
213.627731
  0
LINE
  8
1
 62
7
  6
CONTINUOUS
 10
169.505696
 20
213.627731
 11
169.942645
 21
213.671488
  0
LINE
  8
1
 62
7
  6
CONTINUOUS
 10
169.942645
 20
213.671488
 11
170.386422
 21
213.727214
  0
LINE
  8
1
 62
7
  6
CONTINUOUS
 10
170.386422
 20
213.727214
 11
170.820536
 21
213.792187
  0
LINE
  8
1
 62
7
  6
CONTINUOUS
 10
170.820536
 20
213.792187
 11
171.229752
 21
213.862590
  0
LINE
  8
1
 62
7
  6
CONTINUOUS
 10
171.229752
 20
213.862590
 11
171.601323
 21
213.934113
  0
LINE
  8
1
 62
7
  6
CONTINUOUS
 10
171.601323
 20
213.934113
 11
171.925909
 21
214.002560
  0
LINE
  8
1
 62
7
  6
CONTINUOUS
 10
171.925909
 20
214.002560
 11
172.197987
 21
214.064361
  0
LINE
  8
1
 62
7
  6
CONTINUOUS
 10
172.197987
 20
214.064361
 11
172.415684
 21
214.116875
  0
LINE
  8
1
 62
7
  6
CONTINUOUS
 10
172.415684
 20
214.116875
 11
172.580040
 21
214.158455
  0
LINE
  8
1
 62
7
  6
CONTINUOUS
 10
172.580040
 20
214.158455
 11
172.693872
 21
214.188303
  0
LINE
  8
1
 62
7
  6
CONTINUOUS
 10
172.693872
 20
214.188303
 11
172.760460
 21
214.206191
  0
LINE
  8
1
 62
7
  6
CONTINUOUS
 10
172.760460
 20
214.206191
 11
172.782341
 21
214.212141
  0
LINE
  8
1
 62
7
  6
CONTINUOUS
 10
172.782341
 20
214.212141
 11
172.803957
 21
214.218056
  0
LINE
  8
1
 62
7
  6
CONTINUOUS
 10
172.803957
 20
214.218056
 11
172.866672
 21
214.235428
  0
LINE
  8
1
 62
7
  6
CONTINUOUS
 10
172.866672
 20
214.235428
 11
172.964407
 21
214.263195
  0
LINE
  8
1
 62
7
  6
CONTINUOUS
 10
172.964407
 20
214.263195
 11
173.088063
 21
214.299726
  0
LINE
  8
1
 62
7
  6
CONTINUOUS
 10
173.088063
 20
214.299726
 11
173.226848
 21
214.343023
  0
LINE
  8
1
 62
7
  6
CONTINUOUS
 10
173.226848
 20
214.343023
 11
173.369793
 21
214.390930
  0
LINE
  8
1
 62
7
  6
CONTINUOUS
 10
173.369793
 20
214.390930
 11
173.507145
 21
214.441351
  0
LINE
  8
1
 62
7
  6
CONTINUOUS
 10
173.507145
 20
214.441351
 11
173.631441
 21
214.492405
  0
LINE
  8
1
 62
7
  6
CONTINUOUS
 10
173.631441
 20
214.492405
 11
173.738075
 21
214.542536
  0
LINE
  8
1
 62
7
  6
CONTINUOUS
 10
173.738075
 20
214.542536
 11
173.825335
 21
214.590539
  0
LINE
  8
1
 62
7
  6
CONTINUOUS
 10
173.825335
 20
214.590539
 11
173.893950
 21
214.635524
  0
LINE
  8
1
 62
7
  6
CONTINUOUS
 10
173.893950
 20
214.635524
 11
173.946327
 21
214.676845
  0
LINE
  8
1
 62
7
  6
CONTINUOUS
 10
173.946327
 20
214.676845
 11
173.985655
 21
214.713998
  0
LINE
  8
1
 62
7
  6
CONTINUOUS
 10
173.985655
 20
214.713998
 11
174.015091
 21
214.746543
  0
LINE
  8
1
 62
7
  6
CONTINUOUS
 10
174.015091
 20
214.746543
 11
174.037186
 21
214.774046
  0
LINE
  8
1
 62
7
  6
CONTINUOUS
 10
174.037186
 20
214.774046
 11
174.053612
 21
214.796064
  0
LINE
  8
1
 62
7
  6
CONTINUOUS
 10
174.053612
 20
214.796064
 11
174.065201
 21
214.812171
  0
LINE
  8
1
 62
7
  6
CONTINUOUS
 10
174.065201
 20
214.812171
 11
174.072186
 21
214.822001
  0
LINE
  8
1
 62
7
  6
CONTINUOUS
 10
174.072186
 20
214.822001
 11
174.074530
 21
214.825307
  0
LINE
  8
1
 62
7
  6
CONTINUOUS
 10
160.282341
 20
214.095903
 11
160.295274
 21
214.108187
  0
LINE
  8
1
 62
7
  6
CONTINUOUS
 10
160.295274
 20
214.108187
 11
160.333734
 21
214.144695
  0
LINE
  8
1
 62
7
  6
CONTINUOUS
 10
160.333734
 20
214.144695
 11
160.396766
 21
214.204337
  0
LINE
  8
1
 62
7
  6
CONTINUOUS
 10
160.396766
 20
214.204337
 11
160.483003
 21
214.285145
  0
LINE
  8
1
 62
7
  6
CONTINUOUS
 10
160.483003
 20
214.285145
 11
160.590905
 21
214.384126
  0
LINE
  8
1
 62
7
  6
CONTINUOUS
 10
160.590905
 20
214.384126
 11
160.718977
 21
214.497176
  0
LINE
  8
1
 62
7
  6
CONTINUOUS
 10
160.718977
 20
214.497176
 11
160.865858
 21
214.619139
  0
LINE
  8
1
 62
7
  6
CONTINUOUS
 10
160.865858
 20
214.619139
 11
161.030235
 21
214.744078
  0
LINE
  8
1
 62
7
  6
CONTINUOUS
 10
161.030235
 20
214.744078
 11
161.210559
 21
214.865732
  0
LINE
  8
1
 62
7
  6
CONTINUOUS
 10
161.210559
 20
214.865732
 11
161.404635
 21
214.978144
  0
LINE
  8
1
 62
7
  6
CONTINUOUS
 10
161.404635
 20
214.978144
 11
161.609147
 21
215.076325
  0
LINE
  8
1
 62
7
  6
CONTINUOUS
 10
161.609147
 20
215.076325
 11
161.819276
 21
215.156859
  0
LINE
  8
1
 62
7
  6
CONTINUOUS
 10
161.819276
 20
215.156859
 11
162.028519
 21
215.218301
  0
LINE
  8
1
 62
7
  6
CONTINUOUS
 10
162.028519
 20
215.218301
 11
162.228803
 21
215.261269
  0
LINE
  8
1
 62
7
  6
CONTINUOUS
 10
162.228803
 20
215.261269
 11
162.410942
 21
215.288203
  0
LINE
  8
1
 62
7
  6
CONTINUOUS
 10
162.410942
 20
215.288203
 11
162.565396
 21
215.302807
  0
LINE
  8
1
 62
7
  6
CONTINUOUS
 10
162.565396
 20
215.302807
 11
162.683233
 21
215.309260
  0
LINE
  8
1
 62
7
  6
CONTINUOUS
 10
162.683233
 20
215.309260
 11
162.757146
 21
215.311360
  0
LINE
  8
1
 62
7
  6
CONTINUOUS
 10
162.757146
 20
215.311360
 11
162.782341
 21
215.311746
  0
LINE
  8
1
 62
7
  6
CONTINUOUS
 10
162.782341
 20
215.311746
 11
162.807703
 21
215.311969
  0
LINE
  8
1
 62
7
  6
CONTINUOUS
 10
162.807703
 20
215.311969
 11
162.884083
 21
215.311686
  0
LINE
  8
1
 62
7
  6
CONTINUOUS
 10
162.884083
 20
215.311686
 11
163.012189
 21
215.308289
  0
LINE
  8
1
 62
7
  6
CONTINUOUS
 10
163.012189
 20
215.308289
 11
163.192671
 21
215.298184
  0
LINE
  8
1
 62
7
  6
CONTINUOUS
 10
163.192671
 20
215.298184
 11
163.425439
 21
215.277734
  0
LINE
  8
1
 62
7
  6
CONTINUOUS
 10
163.425439
 20
215.277734
 11
163.708924
 21
215.244248
  0
LINE
  8
1
 62
7
  6
CONTINUOUS
 10
163.708924
 20
215.244248
 11
164.039420
 21
215.196774
  0
LINE
  8
1
 62
7
  6
CONTINUOUS
 10
164.039420
 20
215.196774
 11
164.410661
 21
215.136517
  0
LINE
  8
1
 62
7
  6
CONTINUOUS
 10
164.410661
 20
215.136517
 11
164.813715
 21
215.066780
  0
LINE
  8
1
 62
7
  6
CONTINUOUS
 10
164.813715
 20
215.066780
 11
165.237216
 21
214.992432
  0
LINE
  8
1
 62
7
  6
CONTINUOUS
 10
165.237216
 20
214.992432
 11
165.667915
 21
214.919044
  0
LINE
  8
1
 62
7
  6
CONTINUOUS
 10
165.667915
 20
214.919044
 11
166.091452
 21
214.851882
  0
LINE
  8
1
 62
7
  6
CONTINUOUS
 10
166.091452
 20
214.851882
 11
166.493225
 21
214.794996
  0
LINE
  8
1
 62
7
  6
CONTINUOUS
 10
166.493225
 20
214.794996
 11
166.859245
 21
214.750612
  0
LINE
  8
1
 62
7
  6
CONTINUOUS
 10
166.859245
 20
214.750612
 11
167.176864
 21
214.718959
  0
LINE
  8
1
 62
7
  6
CONTINUOUS
 10
167.176864
 20
214.718959
 11
167.435316
 21
214.698558
  0
LINE
  8
1
 62
7
  6
CONTINUOUS
 10
167.435316
 20
214.698558
 11
167.626062
 21
214.686890
  0
LINE
  8
1
 62
7
  6
CONTINUOUS
 10
167.626062
 20
214.686890
 11
167.742965
 21
214.681257
  0
LINE
  8
1
 62
7
  6
CONTINUOUS
 10
167.742965
 20
214.681257
 11
167.782341
 21
214.679629
  0
LINE
  8
1
 62
7
  6
CONTINUOUS
 10
167.782341
 20
214.679629
 11
167.821741
 21
214.678139
  0
LINE
  8
1
 62
7
  6
CONTINUOUS
 10
167.821741
 20
214.678139
 11
167.938989
 21
214.674512
  0
LINE
  8
1
 62
7
  6
CONTINUOUS
 10
167.938989
 20
214.674512
 11
168.131133
 21
214.671103
  0
LINE
  8
1
 62
7
  6
CONTINUOUS
 10
168.131133
 20
214.671103
 11
168.392965
 21
214.671287
  0
LINE
  8
1
 62
7
  6
CONTINUOUS
 10
168.392965
 20
214.671287
 11
168.716739
 21
214.678751
  0
LINE
  8
1
 62
7
  6
CONTINUOUS
 10
168.716739
 20
214.678751
 11
169.092002
 21
214.696732
  0
LINE
  8
1
 62
7
  6
CONTINUOUS
 10
169.092002
 20
214.696732
 11
169.505696
 21
214.727335
  0
LINE
  8
1
 62
7
  6
CONTINUOUS
 10
169.505696
 20
214.727335
 11
169.942645
 21
214.771093
  0
LINE
  8
1
 62
7
  6
CONTINUOUS
 10
169.942645
 20
214.771093
 11
170.386422
 21
214.826819
  0
LINE
  8
1
 62
7
  6
CONTINUOUS
 10
170.386422
 20
214.826819
 11
170.820536
 21
214.891792
  0
LINE
  8
1
 62
7
  6
CONTINUOUS
 10
170.820536
 20
214.891792
 11
171.229752
 21
214.962195
  0
LINE
  8
1
 62
7
  6
CONTINUOUS
 10
171.229752
 20
214.962195
 11
171.601323
 21
215.033718
  0
LINE
  8
1
 62
7
  6
CONTINUOUS
 10
171.601323
 20
215.033718
 11
171.925909
 21
215.102164
  0
LINE
  8
1
 62
7
  6
CONTINUOUS
 10
171.925909
 20
215.102164
 11
172.197987
 21
215.163965
  0
LINE
  8
1
 62
7
  6
CONTINUOUS
 10
172.197987
 20
215.163965
 11
172.415684
 21
215.216479
  0
LINE
  8
1
 62
7
  6
CONTINUOUS
 10
172.415684
 20
215.216479
 11
172.580040
 21
215.258059
  0
LINE
  8
1
 62
7
  6
CONTINUOUS
 10
172.580040
 20
215.258059
 11
172.693872
 21
215.287908
  0
LINE
  8
1
 62
7
  6
CONTINUOUS
 10
172.693872
 20
215.287908
 11
172.760460
 21
215.305796
  0
LINE
  8
1
 62
7
  6
CONTINUOUS
 10
172.760460
 20
215.305796
 11
172.782341
 21
215.311746
  0
LINE
  8
1
 62
7
  6
CONTINUOUS
 10
172.782341
 20
215.311746
 11
172.803957
 21
215.317660
  0
LINE
  8
1
 62
7
  6
CONTINUOUS
 10
172.803957
 20
215.317660
 11
172.866672
 21
215.335033
  0
LINE
  8
1
 62
7
  6
CONTINUOUS
 10
172.866672
 20
215.335033
 11
172.964407
 21
215.362799
  0
LINE
  8
1
 62
7
  6
CONTINUOUS
 10
172.964407
 20
215.362799
 11
173.088063
 21
215.399331
  0
LINE
  8
1
 62
7
  6
CONTINUOUS
 10
173.088063
 20
215.399331
 11
173.226848
 21
215.442627
  0
LINE
  8
1
 62
7
  6
CONTINUOUS
 10
173.226848
 20
215.442627
 11
173.369793
 21
215.490535
  0
LINE
  8
1
 62
7
  6
CONTINUOUS
 10
173.369793
 20
215.490535
 11
173.507145
 21
215.540955
  0
LINE
  8
1
 62
7
  6
CONTINUOUS
 10
173.507145
 20
215.540955
 11
173.631441
 21
215.592010
  0
LINE
  8
1
 62
7
  6
CONTINUOUS
 10
173.631441
 20
215.592010
 11
173.738075
 21
215.642141
  0
LINE
  8
1
 62
7
  6
CONTINUOUS
 10
173.738075
 20
215.642141
 11
173.825335
 21
215.690144
  0
LINE
  8
1
 62
7
  6
CONTINUOUS
 10
173.825335
 20
215.690144
 11
173.893950
 21
215.735129
  0
LINE
  8
1
 62
7
  6
CONTINUOUS
 10
173.893950
 20
215.735129
 11
173.946327
 21
215.776450
  0
LINE
  8
1
 62
7
  6
CONTINUOUS
 10
173.946327
 20
215.776450
 11
173.985655
 21
215.813603
  0
LINE
  8
1
 62
7
  6
CONTINUOUS
 10
173.985655
 20
215.813603
 11
174.015091
 21
215.846148
  0
LINE
  8
1
 62
7
  6
CONTINUOUS
 10
174.015091
 20
215.846148
 11
174.037186
 21
215.873650
  0
LINE
  8
1
 62
7
  6
CONTINUOUS
 10
174.037186
 20
215.873650
 11
174.053612
 21
215.895669
  0
LINE
  8
1
 62
7
  6
CONTINUOUS
 10
174.053612
 20
215.895669
 11
174.065201
 21
215.911776
  0
LINE
  8
1
 62
7
  6
CONTINUOUS
 10
174.065201
 20
215.911776
 11
174.072186
 21
215.921606
  0
LINE
  8
1
 62
7
  6
CONTINUOUS
 10
174.072186
 20
215.921606
 11
174.074530
 21
215.924912
  0
LINE
  8
1
 62
7
  6
CONTINUOUS
 10
160.282341
 20
214.095903
 11
160.295274
 21
214.108187
  0
LINE
  8
1
 62
7
  6
CONTINUOUS
 10
160.295274
 20
214.108187
 11
160.333734
 21
214.144695
  0
LINE
  8
1
 62
7
  6
CONTINUOUS
 10
160.333734
 20
214.144695
 11
160.396766
 21
214.204337
  0
LINE
  8
1
 62
7
  6
CONTINUOUS
 10
160.396766
 20
214.204337
 11
160.483003
 21
214.285145
  0
LINE
  8
1
 62
7
  6
CONTINUOUS
 10
160.483003
 20
214.285145
 11
160.590905
 21
214.384126
  0
LINE
  8
1
 62
7
  6
CONTINUOUS
 10
160.590905
 20
214.384126
 11
160.718977
 21
214.497176
  0
LINE
  8
1
 62
7
  6
CONTINUOUS
 10
160.718977
 20
214.497176
 11
160.865858
 21
214.619139
  0
LINE
  8
1
 62
7
  6
CONTINUOUS
 10
160.865858
 20
214.619139
 11
161.030235
 21
214.744078
  0
LINE
  8
1
 62
7
  6
CONTINUOUS
 10
161.030235
 20
214.744078
 11
161.210559
 21
214.865732
  0
LINE
  8
1
 62
7
  6
CONTINUOUS
 10
161.210559
 20
214.865732
 11
161.404635
 21
214.978144
  0
LINE
  8
1
 62
7
  6
CONTINUOUS
 10
161.404635
 20
214.978144
 11
161.609147
 21
215.076325
  0
LINE
  8
1
 62
7
  6
CONTINUOUS
 10
161.609147
 20
215.076325
 11
161.819276
 21
215.156859
  0
LINE
  8
1
 62
7
  6
CONTINUOUS
 10
161.819276
 20
215.156859
 11
162.028519
 21
215.218301
  0
LINE
  8
1
 62
7
  6
CONTINUOUS
 10
162.028519
 20
215.218301
 11
162.228803
 21
215.261269
  0
LINE
  8
1
 62
7
  6
CONTINUOUS
 10
162.228803
 20
215.261269
 11
162.410942
 21
215.288203
  0
LINE
  8
1
 62
7
  6
CONTINUOUS
 10
162.410942
 20
215.288203
 11
162.565396
 21
215.302807
  0
LINE
  8
1
 62
7
  6
CONTINUOUS
 10
162.565396
 20
215.302807
 11
162.683233
 21
215.309260
  0
LINE
  8
1
 62
7
  6
CONTINUOUS
 10
162.683233
 20
215.309260
 11
162.757146
 21
215.311360
  0
LINE
  8
1
 62
7
  6
CONTINUOUS
 10
162.757146
 20
215.311360
 11
162.782341
 21
215.311746
  0
LINE
  8
1
 62
7
  6
CONTINUOUS
 10
162.782341
 20
215.311746
 11
162.807703
 21
215.311969
  0
LINE
  8
1
 62
7
  6
CONTINUOUS
 10
162.807703
 20
215.311969
 11
162.884083
 21
215.311686
  0
LINE
  8
1
 62
7
  6
CONTINUOUS
 10
162.884083
 20
215.311686
 11
163.012189
 21
215.308289
  0
LINE
  8
1
 62
7
  6
CONTINUOUS
 10
163.012189
 20
215.308289
 11
163.192671
 21
215.298184
  0
LINE
  8
1
 62
7
  6
CONTINUOUS
 10
163.192671
 20
215.298184
 11
163.425439
 21
215.277734
  0
LINE
  8
1
 62
7
  6
CONTINUOUS
 10
163.425439
 20
215.277734
 11
163.708924
 21
215.244248
  0
LINE
  8
1
 62
7
  6
CONTINUOUS
 10
163.708924
 20
215.244248
 11
164.039420
 21
215.196774
  0
LINE
  8
1
 62
7
  6
CONTINUOUS
 10
164.039420
 20
215.196774
 11
164.410661
 21
215.136517
  0
LINE
  8
1
 62
7
  6
CONTINUOUS
 10
164.410661
 20
215.136517
 11
164.813715
 21
215.066780
  0
LINE
  8
1
 62
7
  6
CONTINUOUS
 10
164.813715
 20
215.066780
 11
165.237216
 21
214.992432
  0
LINE
  8
1
 62
7
  6
CONTINUOUS
 10
165.237216
 20
214.992432
 11
165.667915
 21
214.919044
  0
LINE
  8
1
 62
7
  6
CONTINUOUS
 10
165.667915
 20
214.919044
 11
166.091452
 21
214.851882
  0
LINE
  8
1
 62
7
  6
CONTINUOUS
 10
166.091452
 20
214.851882
 11
166.493225
 21
214.794996
  0
LINE
  8
1
 62
7
  6
CONTINUOUS
 10
166.493225
 20
214.794996
 11
166.859245
 21
214.750612
  0
LINE
  8
1
 62
7
  6
CONTINUOUS
 10
166.859245
 20
214.750612
 11
167.176864
 21
214.718959
  0
LINE
  8
1
 62
7
  6
CONTINUOUS
 10
167.176864
 20
214.718959
 11
167.435316
 21
214.698558
  0
LINE
  8
1
 62
7
  6
CONTINUOUS
 10
167.435316
 20
214.698558
 11
167.626062
 21
214.686890
  0
LINE
  8
1
 62
7
  6
CONTINUOUS
 10
167.626062
 20
214.686890
 11
167.742965
 21
214.681257
  0
LINE
  8
1
 62
7
  6
CONTINUOUS
 10
167.742965
 20
214.681257
 11
167.782341
 21
214.679629
  0
LINE
  8
1
 62
7
  6
CONTINUOUS
 10
167.782341
 20
214.679629
 11
167.821741
 21
214.678139
  0
LINE
  8
1
 62
7
  6
CONTINUOUS
 10
167.821741
 20
214.678139
 11
167.938989
 21
214.674512
  0
LINE
  8
1
 62
7
  6
CONTINUOUS
 10
167.938989
 20
214.674512
 11
168.131133
 21
214.671103
  0
LINE
  8
1
 62
7
  6
CONTINUOUS
 10
168.131133
 20
214.671103
 11
168.392965
 21
214.671287
  0
LINE
  8
1
 62
7
  6
CONTINUOUS
 10
168.392965
 20
214.671287
 11
168.716739
 21
214.678751
  0
LINE
  8
1
 62
7
  6
CONTINUOUS
 10
168.716739
 20
214.678751
 11
169.092002
 21
214.696732
  0
LINE
  8
1
 62
7
  6
CONTINUOUS
 10
169.092002
 20
214.696732
 11
169.505696
 21
214.727335
  0
LINE
  8
1
 62
7
  6
CONTINUOUS
 10
169.505696
 20
214.727335
 11
169.942645
 21
214.771093
  0
LINE
  8
1
 62
7
  6
CONTINUOUS
 10
169.942645
 20
214.771093
 11
170.386422
 21
214.826819
  0
LINE
  8
1
 62
7
  6
CONTINUOUS
 10
170.386422
 20
214.826819
 11
170.820536
 21
214.891792
  0
LINE
  8
1
 62
7
  6
CONTINUOUS
 10
170.820536
 20
214.891792
 11
171.229752
 21
214.962195
  0
LINE
  8
1
 62
7
  6
CONTINUOUS
 10
171.229752
 20
214.962195
 11
171.601323
 21
215.033718
  0
LINE
  8
1
 62
7
  6
CONTINUOUS
 10
171.601323
 20
215.033718
 11
171.925909
 21
215.102164
  0
LINE
  8
1
 62
7
  6
CONTINUOUS
 10
171.925909
 20
215.102164
 11
172.197987
 21
215.163965
  0
LINE
  8
1
 62
7
  6
CONTINUOUS
 10
172.197987
 20
215.163965
 11
172.415684
 21
215.216479
  0
LINE
  8
1
 62
7
  6
CONTINUOUS
 10
172.415684
 20
215.216479
 11
172.580040
 21
215.258059
  0
LINE
  8
1
 62
7
  6
CONTINUOUS
 10
172.580040
 20
215.258059
 11
172.693872
 21
215.287908
  0
LINE
  8
1
 62
7
  6
CONTINUOUS
 10
172.693872
 20
215.287908
 11
172.760460
 21
215.305796
  0
LINE
  8
1
 62
7
  6
CONTINUOUS
 10
172.760460
 20
215.305796
 11
172.782341
 21
215.311746
  0
LINE
  8
1
 62
7
  6
CONTINUOUS
 10
172.782341
 20
215.311746
 11
172.803957
 21
215.317660
  0
LINE
  8
1
 62
7
  6
CONTINUOUS
 10
172.803957
 20
215.317660
 11
172.866672
 21
215.335033
  0
LINE
  8
1
 62
7
  6
CONTINUOUS
 10
172.866672
 20
215.335033
 11
172.964407
 21
215.362799
  0
LINE
  8
1
 62
7
  6
CONTINUOUS
 10
172.964407
 20
215.362799
 11
173.088063
 21
215.399331
  0
LINE
  8
1
 62
7
  6
CONTINUOUS
 10
173.088063
 20
215.399331
 11
173.226848
 21
215.442627
  0
LINE
  8
1
 62
7
  6
CONTINUOUS
 10
173.226848
 20
215.442627
 11
173.369793
 21
215.490535
  0
LINE
  8
1
 62
7
  6
CONTINUOUS
 10
173.369793
 20
215.490535
 11
173.507145
 21
215.540955
  0
LINE
  8
1
 62
7
  6
CONTINUOUS
 10
173.507145
 20
215.540955
 11
173.631441
 21
215.592010
  0
LINE
  8
1
 62
7
  6
CONTINUOUS
 10
173.631441
 20
215.592010
 11
173.738075
 21
215.642141
  0
LINE
  8
1
 62
7
  6
CONTINUOUS
 10
173.738075
 20
215.642141
 11
173.825335
 21
215.690144
  0
LINE
  8
1
 62
7
  6
CONTINUOUS
 10
173.825335
 20
215.690144
 11
173.893950
 21
215.735129
  0
LINE
  8
1
 62
7
  6
CONTINUOUS
 10
173.893950
 20
215.735129
 11
173.946327
 21
215.776450
  0
LINE
  8
1
 62
7
  6
CONTINUOUS
 10
173.946327
 20
215.776450
 11
173.985655
 21
215.813603
  0
LINE
  8
1
 62
7
  6
CONTINUOUS
 10
173.985655
 20
215.813603
 11
174.015091
 21
215.846148
  0
LINE
  8
1
 62
7
  6
CONTINUOUS
 10
174.015091
 20
215.846148
 11
174.037186
 21
215.873650
  0
LINE
  8
1
 62
7
  6
CONTINUOUS
 10
174.037186
 20
215.873650
 11
174.053612
 21
215.895669
  0
LINE
  8
1
 62
7
  6
CONTINUOUS
 10
174.053612
 20
215.895669
 11
174.065201
 21
215.911776
  0
LINE
  8
1
 62
7
  6
CONTINUOUS
 10
174.065201
 20
215.911776
 11
174.072186
 21
215.921606
  0
LINE
  8
1
 62
7
  6
CONTINUOUS
 10
174.072186
 20
215.921606
 11
174.074530
 21
215.924912
  0
ENDSEC
  0
EOF
