  0
SECTION
  2
HEADER
  9
$ACADVER
  1
AC1003
  9
$INSBASE
 10
0.000000
 20
0.000000
  9
$EXTMIN
 10
0.000000
 20
0.000000
  9
$EXTMAX
 10
420.000000
 20
297.000000
  9
$LIMMIN
 10
0.000000
 20
0.000000
  9
$LIMMAX
 10
420.000000
 20
297.000000
  9
$VIEWCTR
 10
210.000000
 20
148.500000
  9
$VIEWSIZE
 40
297.000000
  9
$PEXTMIN
 10
0.000000
 20
0.000000
 30
0.000000
  9
$PEXTMAX
 10
420.000000
 20
297.000000
 30
0.000000
  9
$SNAPMODE
 70
     0
  9
$SNAPUNIT
 10
1.000000
 20
1.000000
  9
$SNAPBASE
 10
0.000000
 20
0.000000
  9
$SNAPANG
 50
0.000000
  9
$SNAPISOPAIR
 70
     0
  9
$SNAPSTYLE
 70
     0
  9
$GRIDMODE
 70
     0
  9
$GRIDUNIT
 10
0.000000
 20
0.000000
  9
$ORTHOMODE
 70
     0
  9
$REGENMODE
 70
     1
  9
$FILLMODE
 70
     1
  9
$QTEXTMODE
 70
     0
  9
$DRAGMODE
 70
     2
  9
$LTSCALE
 40
0.250000
  9
$OSMODE
 70
     0
  9
$ATTMODE
 70
     1
  9
$TEXTSIZE
 40
0.200000
  9
$TRACEWID
 40
0.050000
  9
$TEXTSTYLE
  7
STANDARD
  9
$CLAYER
  8
0
  9
$CELTYPE
  6
BYLAYER
  9
$CECOLOR
 62
   256
  9
$DIMSCALE
 40
1.000000
  9
$DIMASZ
 40
1.000000
  9
$DIMEXO
 40
0.000000
  9
$DIMDLI
 40
0.500000
  9
$DIMRND
 40
0.000000
  9
$DIMDLE
 40
0.000000
  9
$DIMEXE
 40
0.000000
  9
$DIMTP
 40
0.000000
  9
$DIMTM
 40
0.000000
  9
$DIMTXT
 40
0.180000
  9
$DIMCEN
 40
0.000000
  9
$DIMTSZ
 40
0.000000
  9
$DIMTOL
 70
     0
  9
$DIMLIM
 70
     0
  9
$DIMTIH
 70
     1
  9
$DIMTOH
 70
     1
  9
$DIMSE1
 70
     0
  9
$DIMSE2
 70
     0
  9
$DIMTAD
 70
     0
  9
$DIMZIN
 70
     0
  9
$DIMBLK
  1

  9
$DIMASO
 70
     0
  9
$DIMSHO
 70
     0
  9
$DIMPOST
  1

  9
$DIMAPOST
  1

  9
$DIMALT
 70
     0
  9
$DIMALTD
 70
     0
  9
$DIMALTF
 40
25.400000
  9
$DIMLFAC
 40
1.000000
  9
$DIMTOFL
 70
     0
  9
$DIMTVP
 40
0.000000
  9
$DIMTIX
 70
     0
  9
$DIMSOXD
 70
     0
  9
$DIMSAH
 70
     0
  9
$DIMBLKL
  1

  9
$DIMBLKR
  1

  9
$LUNITS
 70
     2
  9
$LUPREC
 70
     2
  9
$AXISMODE
 70
     0
  9
$AXISUNIT
 10
1.000000
 20
1.000000
  9
$SKETCHINC
 40
0.000000
  9
$FILLETRAD
 40
0.000000
  9
$AUNITS
 70
     1
  9
$AUPREC
 70
     2
  9
$MENU
  1
ACAD
  9
$ELEVATION
 40
0.000000
  9
$THICKNESS
 40
0.000000
  9
$VIEWDIR
 10
0.000000
 20
0.000000
 30
1.000000
  9
$LIMCHECK
 70
     1
  9
$BLIPMODE
 70
     1
  9
$CHAMFERA
 40
0.000000
  9
$CHAMFERB
 40
0.000000
  9
$FASTZOOM
 70
     1
  9
$SKPOLY
 70
     0
  9
$TDCREATE
 40
0.000000
  9
$TDUPDATE
 40
0.000000
  9
$TDINDWG
 40
0.000000
  9
$TDUSRTIMER
 40
0.000000
  9
$USRTIMER
 70
     1
  9
$ANGBASE
 50
0.000000
  9
$ANGDIR
 70
     0
  9
$PDMODE
 70
     0
  9
$PDSIZE
 40
0.000000
  9
$PLINEWID
 40
0.000000
  9
$COORDS
 70
     2
  9
$USERI1
 70
     0
  9
$USERI2
 70
     0
  9
$USERI3
 70
     0
  9
$USERI4
 70
     0
  9
$USERI5
 70
     0
  9
$USERR1
 40
0.000000
  9
$USERR2
 40
0.000000
  9
$USERR3
 40
0.000000
  9
$USERR4
 40
0.000000
  9
$USERR5
 40
0.000000
  0
ENDSEC
  0
SECTION
  2
TABLES
  0
TABLE
  2
LTYPE
 70
     5
  0
LTYPE
  2
CONTINUOUS
 70
    64
  3
Solid line
 72
    65
 73
     0
 40
0.0
  0
LTYPE
  2
HIDDEN
 70
    64
  3
------------------------
 72
    65
 73
     2
 40
12.6
 49
8.4
 49
-4.2
  0
LTYPE
  2
DOT
 70
    64
  3
････････････････････････
 72
    65
 73
     2
 40
8.0
 49
6.0
 49
-2.0
  0
LTYPE
  2
DASHDOT
 70
    64
  3
--･--･--･--･--･--･--･--
 72
    65
 73
     4
 40
50.5
 49
30.0
 49
-9.0
 49
2.5
 49
-9.0
  0
LTYPE
  2
DIVIDE
 70
    64
  3
--･･--･･--･･--･･--･･--
 72
    65
 73
     6
 40
58.0
 49
30.0
 49
-9.0
 49
2.5
 49
-5.0
 49
2.5
 49
-9.0
  0
ENDTAB
  0
TABLE
  2
LAYER
 70
2
  0
LAYER
  2
1
 70
64
 62
7
  6
CONTINUOUS
  0
LAYER
  2
15
 70
64
 62
96
  6
CONTINUOUS
  0
ENDTAB
  0
TABLE
  2
STYLE
 70
     2
  0
STYLE
  2
STANDARD
 70
    64
 40
0.0
 41
1.0
 50
0.0
 71
     0
 42
0.2
  3
TXT
  4

  0
STYLE
  2
KANJI
 70
    64
 40
0.0
 41
1.0
 50
0.0
 71
     0
 42
0.2
  3
TXT
  4
BIGFONT
  0
ENDTAB
  0
TABLE
  2
VIEW
 70
     0
  0
ENDTAB
  0
ENDSEC
  0
SECTION
  2
BLOCKS
  0
ENDSEC
  0
SECTION
  2
ENTITIES
  0
LINE
  8
15
 62
96
  6
CONTINUOUS
 10
11.569950
 20
271.280793
 11
11.569950
 21
14.205001
  0
LINE
  8
15
 62
96
  6
CONTINUOUS
 10
11.569950
 20
14.205001
 11
396.683491
 21
14.205001
  0
LINE
  8
15
 62
96
  6
CONTINUOUS
 10
361.009454
 20
19.906778
 11
348.543116
 21
19.906778
  0
LINE
  8
15
 62
96
  6
CONTINUOUS
 10
310.948349
 20
15.083821
 11
314.116135
 21
15.083821
  0
LINE
  8
15
 62
96
  6
CONTINUOUS
 10
329.589137
 20
18.933549
 11
329.589137
 21
20.149251
  0
LINE
  8
15
 62
96
  6
CONTINUOUS
 10
328.272131
 20
18.933549
 11
329.589137
 21
18.933549
  0
LINE
  8
15
 62
96
  6
CONTINUOUS
 10
328.272131
 20
15.083821
 11
328.272131
 21
18.933549
  0
LINE
  8
15
 62
96
  6
CONTINUOUS
 10
326.853809
 20
15.083821
 11
328.272131
 21
15.083821
  0
LINE
  8
15
 62
96
  6
CONTINUOUS
 10
326.001508
 20
15.083821
 11
324.219785
 21
15.083821
  0
LINE
  8
15
 62
96
  6
CONTINUOUS
 10
316.824254
 20
15.083821
 11
321.180522
 21
15.083821
  0
LINE
  8
15
 62
96
  6
CONTINUOUS
 10
316.824254
 20
17.211301
 11
316.824254
 21
15.083821
  0
LINE
  8
15
 62
96
  6
CONTINUOUS
 10
314.116135
 20
15.083821
 11
319.053044
 21
19.971849
  0
LINE
  8
15
 62
96
  6
CONTINUOUS
 10
319.053044
 20
19.971849
 11
319.053044
 21
17.211301
  0
LINE
  8
15
 62
96
  6
CONTINUOUS
 10
319.053044
 20
17.211301
 11
316.824254
 21
17.211301
  0
LINE
  8
15
 62
96
  6
CONTINUOUS
 10
321.180522
 20
17.920461
 11
324.219785
 21
15.083821
  0
ARC
  8
15
 62
96
  6
CONTINUOUS
 10
323.611932
 20
18.427005
 40
0.506544
 50
-90.000000
 51
90.000000
  0
LINE
  8
15
 62
96
  6
CONTINUOUS
 10
321.180522
 20
17.920461
 11
323.611932
 21
17.920461
  0
LINE
  8
15
 62
96
  6
CONTINUOUS
 10
321.585758
 20
18.933549
 11
323.611932
 21
18.933549
  0
LINE
  8
15
 62
96
  6
CONTINUOUS
 10
321.585758
 20
20.149251
 11
321.585758
 21
18.933549
  0
LINE
  8
15
 62
96
  6
CONTINUOUS
 10
321.585758
 20
20.149251
 11
323.995839
 21
20.149251
  0
ARC
  8
15
 62
96
  6
CONTINUOUS
 10
323.803883
 20
18.427005
 40
1.732910
 50
-76.055153
 51
83.640296
  0
LINE
  8
15
 62
96
  6
CONTINUOUS
 10
324.219785
 20
16.746764
 11
326.001508
 21
15.083821
  0
LINE
  8
15
 62
96
  6
CONTINUOUS
 10
329.589137
 20
20.149251
 11
325.536793
 21
20.149251
  0
LINE
  8
15
 62
96
  6
CONTINUOUS
 10
325.536793
 20
20.149251
 11
325.536793
 21
18.933549
  0
LINE
  8
15
 62
96
  6
CONTINUOUS
 10
325.536793
 20
18.933549
 11
326.853809
 21
18.933549
  0
LINE
  8
15
 62
96
  6
CONTINUOUS
 10
326.853809
 20
18.933549
 11
326.853809
 21
15.083821
  0
LINE
  8
15
 62
96
  6
CONTINUOUS
 10
306.656949
 20
14.205001
 11
306.656949
 21
59.218279
  0
LINE
  8
15
 62
96
  6
CONTINUOUS
 10
306.656949
 20
50.215625
 11
396.683491
 21
50.215625
  0
LINE
  8
15
 62
96
  6
CONTINUOUS
 10
306.656949
 20
50.215618
 11
396.683491
 21
50.215625
  0
LINE
  8
15
 62
96
  6
CONTINUOUS
 10
396.683491
 20
26.208547
 11
306.656949
 21
26.208540
  0
LINE
  8
15
 62
96
  6
CONTINUOUS
 10
321.661372
 20
32.210311
 11
321.661372
 21
26.208541
  0
LINE
  8
15
 62
96
  6
CONTINUOUS
 10
321.180522
 20
15.083821
 11
321.180522
 21
25.214682
  0
LINE
  8
15
 62
96
  6
CONTINUOUS
 10
321.180522
 20
25.214682
 11
310.948349
 21
15.083821
  0
LINE
  8
15
 62
96
  6
CONTINUOUS
 10
320.913866
 20
24.950667
 11
321.180522
 21
24.950667
  0
LINE
  8
15
 62
96
  6
CONTINUOUS
 10
321.661372
 20
41.212964
 11
321.661372
 21
32.210311
  0
LINE
  8
15
 62
96
  6
CONTINUOUS
 10
346.668745
 20
41.212964
 11
346.668745
 21
32.210313
  0
LINE
  8
15
 62
96
  6
CONTINUOUS
 10
371.676118
 20
41.212964
 11
371.676118
 21
32.210314
  0
LINE
  8
15
 62
96
  6
CONTINUOUS
 10
306.656949
 20
265.779171
 11
396.683491
 21
265.779171
  0
LINE
  8
15
 62
96
  6
CONTINUOUS
 10
306.656949
 20
260.277549
 11
396.683491
 21
260.277549
  0
LINE
  8
15
 62
96
  6
CONTINUOUS
 10
306.656949
 20
254.775927
 11
396.683491
 21
254.775927
  0
LINE
  8
15
 62
96
  6
CONTINUOUS
 10
396.683491
 20
249.274305
 11
306.656949
 21
249.274305
  0
LINE
  8
15
 62
96
  6
CONTINUOUS
 10
306.656949
 20
59.218279
 11
306.656949
 21
71.721965
  0
LINE
  8
15
 62
96
  6
CONTINUOUS
 10
396.680009
 20
144.639798
 11
396.680009
 21
146.771862
  0
LINE
  8
15
 62
96
  6
CONTINUOUS
 10
11.569950
 20
271.280793
 11
396.683750
 21
271.280793
  0
LINE
  8
15
 62
96
  6
CONTINUOUS
 10
396.683750
 20
14.204678
 11
396.683750
 21
271.280470
  0
LINE
  8
15
 62
96
  6
CONTINUOUS
 10
306.656428
 20
58.718125
 11
396.682970
 21
58.718125
  0
LINE
  8
15
 62
96
  6
CONTINUOUS
 10
331.522607
 20
271.280793
 11
331.522607
 21
265.779171
  0
LINE
  8
15
 62
96
  6
CONTINUOUS
 10
306.656428
 20
64.219747
 11
396.682970
 21
64.219747
  0
TEXT
  8
15
 62
96
  6
CONTINUOUS
 10
312.858256
 20
59.968493
 40
3.000885
 41
0.944444
  1
図面履歴
  7
KANJI
 50
-0.000000
 51
0.000000
  0
LINE
  8
15
 62
96
  6
CONTINUOUS
 10
306.656428
 20
58.718125
 11
396.682970
 21
58.718125
  0
LINE
  8
15
 62
96
  6
CONTINUOUS
 10
331.663801
 20
64.219747
 11
331.663801
 21
58.718125
  0
LINE
  8
15
 62
96
  6
CONTINUOUS
 10
306.656428
 20
58.718125
 11
396.682970
 21
58.718125
  0
LINE
  8
15
 62
96
  6
CONTINUOUS
 10
351.690451
 20
32.208543
 11
351.690451
 21
26.208543
  0
LINE
  8
15
 62
96
  6
CONTINUOUS
 10
358.690451
 20
32.208548
 11
358.690451
 21
26.208548
  0
LINE
  8
15
 62
96
  6
CONTINUOUS
 10
384.683491
 20
32.208546
 11
384.683491
 21
26.208546
  0
LINE
  8
15
 62
96
  6
CONTINUOUS
 10
387.734180
 20
31.448546
 11
387.734180
 21
26.968546
  0
CIRCLE
  8
15
 62
96
  6
CONTINUOUS
 10
387.734180
 20
29.208546
 40
0.960000
  0
CIRCLE
  8
15
 62
96
  6
CONTINUOUS
 10
387.734180
 20
29.208546
 40
1.600000
  0
LINE
  8
15
 62
96
  6
CONTINUOUS
 10
390.373451
 20
30.168546
 11
390.373451
 21
28.248546
  0
LINE
  8
15
 62
96
  6
CONTINUOUS
 10
395.493451
 20
30.808546
 11
395.493451
 21
27.608546
  0
LINE
  8
15
 62
96
  6
CONTINUOUS
 10
390.373451
 20
30.168546
 11
395.493451
 21
30.808546
  0
LINE
  8
15
 62
96
  6
CONTINUOUS
 10
390.373451
 20
28.248546
 11
395.493451
 21
27.608546
  0
LINE
  8
15
 62
96
  6
CONTINUOUS
 10
385.494180
 20
29.208546
 11
396.039451
 21
29.208546
  0
LINE
  8
15
 62
96
  6
CONTINUOUS
 10
396.683750
 20
32.210316
 11
306.656949
 21
32.210309
  0
LINE
  8
15
 62
96
  6
CONTINUOUS
 10
306.656949
 20
41.212964
 11
396.683750
 21
41.212964
  0
LINE
  8
15
 62
96
  6
CONTINUOUS
 10
306.656949
 20
243.772683
 11
396.683491
 21
243.772683
  0
LINE
  8
15
 62
96
  6
CONTINUOUS
 10
331.522607
 20
260.291024
 11
331.522607
 21
238.271061
  0
TEXT
  8
15
 62
96
  6
DIVIDE
 10
314.660635
 20
256.026738
 40
3.000000
 41
0.833333
  1
材　質
  7
KANJI
 50
0.000000
 51
0.000000
  0
TEXT
  8
15
 62
96
  6
DIVIDE
 10
314.660635
 20
250.525116
 40
3.000000
 41
0.833333
  1
仕　上
  7
KANJI
 50
0.000000
 51
0.000000
  0
TEXT
  8
15
 62
96
  6
DIVIDE
 10
359.673906
 20
250.525116
 40
3.000000
 41
0.833333
  1
艶　消
  7
KANJI
 50
0.000000
 51
0.000000
  0
TEXT
  8
15
 62
96
  6
DIVIDE
 10
314.589778
 20
245.023494
 40
3.000000
 41
0.833333
  1
彩　色
  7
KANJI
 50
0.000000
 51
0.000000
  0
TEXT
  8
15
 62
96
  6
DIVIDE
 10
314.660635
 20
239.521872
 40
3.000000
 41
0.833333
  1
重　量
  7
KANJI
 50
0.000000
 51
0.000000
  0
TEXT
  8
15
 62
96
  6
DIVIDE
 10
359.673906
 20
256.026738
 40
3.000000
 41
0.833333
  1
樹　脂
  7
KANJI
 50
0.000000
 51
0.000000
  0
TEXT
  8
15
 62
96
  6
DIVIDE
 10
311.660635
 20
267.029982
 40
3.000000
 41
0.833333
  1
商品コード
  7
KANJI
 50
0.000000
 51
0.000000
  0
TEXT
  8
15
 62
96
  6
DIVIDE
 10
353.673906
 20
267.029982
 40
3.000000
 41
0.833333
  1
０３０３０７４
  7
KANJI
 50
0.000000
 51
0.000000
  0
TEXT
  8
15
 62
96
  6
DIVIDE
 10
341.170220
 20
261.528360
 40
3.000000
 41
0.833333
  1
定　　　　　格
  7
KANJI
 50
0.000000
 51
0.000000
  0
TEXT
  8
15
 62
96
  6
CONTINUOUS
 10
356.987504
 20
33.775611
 40
5.000000
 41
0.900000
  1
辻
  7
KANJI
 50
0.000000
 51
0.000000
  0
TEXT
  8
15
 62
96
  6
CONTINUOUS
 10
380.405503
 20
33.775611
 40
5.000000
 41
0.900000
  1
片山
  7
KANJI
 50
0.000000
 51
0.000000
  0
TEXT
  8
15
 62
96
  6
CONTINUOUS
 10
329.057031
 20
33.775611
 40
5.000000
 41
0.900000
  1
仲代
  7
KANJI
 50
0.000000
 51
0.000000
  0
TEXT
  8
15
 62
96
  6
CONTINUOUS
 10
309.491815
 20
33.720209
 40
3.000000
 41
0.833333
  1
１：１
  7
KANJI
 50
0.000000
 51
0.000000
  0
TEXT
  8
15
 62
96
  6
CONTINUOUS
 10
307.087581
 20
55.832849
 40
2.500000
 41
0.900000
  1
型　式
  7
KANJI
 50
0.000000
 51
0.000000
  0
TEXT
  8
15
 62
96
  6
CONTINUOUS
 10
307.088103
 20
47.169345
 40
2.500000
 41
0.900000
  1
製品名
  7
KANJI
 50
0.000000
 51
0.000000
  0
TEXT
  8
15
 62
96
  6
CONTINUOUS
 10
307.402941
 20
38.293527
 40
2.500000
 41
0.900000
  1
縮尺（Ａ３）
  7
KANJI
 50
0.000000
 51
0.000000
  0
TEXT
  8
15
 62
96
  6
CONTINUOUS
 10
372.730070
 20
38.060871
 40
2.500000
 41
0.900000
  1
作図
  7
KANJI
 50
0.000000
 51
0.000000
  0
TEXT
  8
15
 62
96
  6
CONTINUOUS
 10
322.372532
 20
38.387970
 40
2.500000
 41
0.900000
  1
承認
  7
KANJI
 50
0.000000
 51
0.000000
  0
TEXT
  8
15
 62
96
  6
CONTINUOUS
 10
347.379905
 20
38.387970
 40
2.500000
 41
0.900000
  1
検図
  7
KANJI
 50
0.000000
 51
0.000000
  0
TEXT
  8
15
 62
96
  6
CONTINUOUS
 10
352.702118
 20
27.826481
 40
2.500000
 41
0.900000
  1
日付
  7
KANJI
 50
0.000000
 51
0.000000
  0
TEXT
  8
15
 62
96
  6
CONTINUOUS
 10
308.795185
 20
27.718384
 40
2.500000
 41
0.900000
  1
図面番号
  7
KANJI
 50
0.000000
 51
0.000000
  0
TEXT
  8
15
 62
96
  6
CONTINUOUS
 10
363.182433
 20
14.591993
 40
10.000000
 41
0.833333
  1
アート
  7
KANJI
 50
0.000000
 51
0.000000
  0
TEXT
  8
15
 62
96
  6
CONTINUOUS
 10
330.845214
 20
15.014318
 40
3.600000
 41
1.782421
  1
株式会社
  7
KANJI
 50
0.000000
 51
0.000000
  0
TEXT
  8
15
 62
96
  6
CONTINUOUS
 10
330.774635
 20
18.896142
 40
1.800000
 41
1.018519
  1
出入管理システム
  7
KANJI
 50
0.000000
 51
0.000000
  0
TEXT
  8
15
 62
96
  6
CONTINUOUS
 10
336.140134
 20
43.149349
 40
5.000000
 41
0.900000
  1
面付ボックス
  7
KANJI
 50
0.000000
 51
0.000000
  0
TEXT
  8
15
 62
96
  6
DIVIDE
 10
358.918800
 20
239.492923
 40
3.000000
 41
0.648148
  1
約100ｇ
  7
KANJI
 50
0.000000
 51
0.000000
  0
LINE
  8
15
 62
96
  6
CONTINUOUS
 10
306.656949
 20
271.280793
 11
306.656949
 21
71.721965
  0
LINE
  8
15
 62
96
  6
CONTINUOUS
 10
306.656949
 20
238.271061
 11
396.683491
 21
238.271061
  0
TEXT
  8
15
 62
96
  6
CONTINUOUS
 10
360.975473
 20
27.648958
 40
3.000000
 41
0.603448
  1
2007年09月12日
  7
KANJI
 50
0.000000
 51
0.000000
  0
TEXT
  8
15
 62
96
  6
CONTINUOUS
 10
323.854291
 20
27.468331
 40
3.500000
 41
0.500000
  1
G20013-01-07912
  7
KANJI
 50
0.000000
 51
0.000000
  0
TEXT
  8
15
 62
96
  6
CONTINUOUS
 10
351.463479
 20
59.975843
 40
3.000000
 41
0.566667
  1
G20013-01-03620
  7
KANJI
 50
0.000000
 51
0.000000
  0
LINE
  8
1
 62
7
  6
CONTINUOUS
 10
47.356391
 20
192.742897
 11
47.356391
 21
92.742897
  0
LINE
  8
1
 62
7
  6
CONTINUOUS
 10
45.356391
 20
192.742897
 11
83.319568
 21
192.742897
  0
LINE
  8
1
 62
7
  6
CONTINUOUS
 10
45.356391
 20
92.742897
 11
83.319568
 21
92.742897
  0
LINE
  8
1
 62
7
  6
CONTINUOUS
 10
47.356391
 20
192.742897
 11
47.977557
 21
190.424675
  0
LINE
  8
1
 62
7
  6
CONTINUOUS
 10
47.356391
 20
192.742897
 11
46.735225
 21
190.424675
  0
LINE
  8
1
 62
7
  6
CONTINUOUS
 10
47.356391
 20
92.742897
 11
46.735225
 21
95.061119
  0
LINE
  8
1
 62
7
  6
CONTINUOUS
 10
47.356391
 20
92.742897
 11
47.977557
 21
95.061119
  0
TEXT
  8
1
 62
7
  6
CONTINUOUS
 10
46.856391
 20
140.292897
 40
3.000000
 41
0.566667
  1
100
  7
KANJI
 50
90.000000
 51
0.000000
  0
LINE
  8
1
 62
7
  6
CONTINUOUS
 10
57.356391
 20
130.242897
 11
57.356391
 21
155.242897
  0
LINE
  8
1
 62
7
  6
CONTINUOUS
 10
55.356391
 20
130.242897
 11
94.806391
 21
130.242897
  0
LINE
  8
1
 62
7
  6
CONTINUOUS
 10
55.356391
 20
155.242897
 11
94.806391
 21
155.242897
  0
LINE
  8
1
 62
7
  6
CONTINUOUS
 10
57.356391
 20
130.242897
 11
56.735225
 21
132.561119
  0
LINE
  8
1
 62
7
  6
CONTINUOUS
 10
57.356391
 20
130.242897
 11
57.977557
 21
132.561119
  0
LINE
  8
1
 62
7
  6
CONTINUOUS
 10
57.356391
 20
155.242897
 11
57.977557
 21
152.924675
  0
LINE
  8
1
 62
7
  6
CONTINUOUS
 10
57.356391
 20
155.242897
 11
56.735225
 21
152.924675
  0
TEXT
  8
1
 62
7
  6
CONTINUOUS
 10
56.856391
 20
141.142897
 40
3.000000
 41
0.566667
  1
25
  7
KANJI
 50
90.000000
 51
0.000000
  0
LINE
  8
1
 62
7
  6
CONTINUOUS
 10
67.356391
 20
243.692897
 11
172.256391
 21
243.692897
  0
LINE
  8
1
 62
7
  6
CONTINUOUS
 10
67.356391
 20
245.692897
 11
67.356391
 21
213.651986
  0
LINE
  8
1
 62
7
  6
CONTINUOUS
 10
172.256391
 20
245.692897
 11
172.256391
 21
213.651986
  0
LINE
  8
1
 62
7
  6
CONTINUOUS
 10
67.356391
 20
243.692897
 11
69.674613
 21
244.314063
  0
LINE
  8
1
 62
7
  6
CONTINUOUS
 10
67.356391
 20
243.692897
 11
69.674613
 21
243.071731
  0
LINE
  8
1
 62
7
  6
CONTINUOUS
 10
172.256391
 20
243.692897
 11
169.938169
 21
243.071731
  0
LINE
  8
1
 62
7
  6
CONTINUOUS
 10
172.256391
 20
243.692897
 11
169.938169
 21
244.314063
  0
TEXT
  8
1
 62
7
  6
CONTINUOUS
 10
117.356391
 20
244.192897
 40
3.000000
 41
0.566667
  1
105
  7
KANJI
 50
0.000000
 51
0.000000
  0
LINE
  8
1
 62
7
  6
CONTINUOUS
 10
144.806391
 20
223.692897
 11
94.806391
 21
223.692897
  0
LINE
  8
1
 62
7
  6
CONTINUOUS
 10
144.806391
 20
225.692897
 11
144.806391
 21
155.466717
  0
LINE
  8
1
 62
7
  6
CONTINUOUS
 10
94.806391
 20
225.692897
 11
94.806391
 21
155.466717
  0
LINE
  8
1
 62
7
  6
CONTINUOUS
 10
144.806391
 20
223.692897
 11
142.488169
 21
223.071731
  0
LINE
  8
1
 62
7
  6
CONTINUOUS
 10
144.806391
 20
223.692897
 11
142.488169
 21
224.314063
  0
LINE
  8
1
 62
7
  6
CONTINUOUS
 10
94.806391
 20
223.692897
 11
97.124613
 21
224.314063
  0
LINE
  8
1
 62
7
  6
CONTINUOUS
 10
94.806391
 20
223.692897
 11
97.124613
 21
223.071731
  0
TEXT
  8
1
 62
7
  6
CONTINUOUS
 10
118.206391
 20
224.192897
 40
3.000000
 41
0.566667
  1
50
  7
KANJI
 50
0.000000
 51
0.000000
  0
LINE
  8
1
 62
7
  6
CONTINUOUS
 10
149.806391
 20
233.692897
 11
89.806391
 21
233.692897
  0
LINE
  8
1
 62
7
  6
CONTINUOUS
 10
149.806391
 20
235.692897
 11
149.806391
 21
198.888183
  0
LINE
  8
1
 62
7
  6
CONTINUOUS
 10
89.806391
 20
235.692897
 11
89.806391
 21
198.690972
  0
LINE
  8
1
 62
7
  6
CONTINUOUS
 10
149.806391
 20
233.692897
 11
147.488169
 21
233.071731
  0
LINE
  8
1
 62
7
  6
CONTINUOUS
 10
149.806391
 20
233.692897
 11
147.488169
 21
234.314063
  0
LINE
  8
1
 62
7
  6
CONTINUOUS
 10
89.806391
 20
233.692897
 11
92.124613
 21
234.314063
  0
LINE
  8
1
 62
7
  6
CONTINUOUS
 10
89.806391
 20
233.692897
 11
92.124613
 21
233.071731
  0
TEXT
  8
1
 62
7
  6
CONTINUOUS
 10
118.206391
 20
234.192897
 40
3.000000
 41
0.566667
  1
60
  7
KANJI
 50
0.000000
 51
0.000000
  0
LINE
  8
1
 62
7
  6
CONTINUOUS
 10
143.488531
 20
130.758867
 11
177.492476
 21
97.712232
  0
LINE
  8
1
 62
7
  6
CONTINUOUS
 10
177.492476
 20
97.712232
 11
186.892476
 21
97.712232
  0
TEXT
  8
1
 62
7
  6
CONTINUOUS
 10
177.492476
 20
98.212232
 40
3.000000
 41
0.944444
  1
通線孔
  7
KANJI
 50
0.000000
 51
0.000000
  0
LINE
  8
1
 62
7
  6
CONTINUOUS
 10
143.488531
 20
130.758867
 11
145.583912
 21
129.588662
  0
LINE
  8
1
 62
7
  6
CONTINUOUS
 10
143.488531
 20
130.758867
 11
144.718081
 21
128.697749
  0
LINE
  8
1
 62
7
  6
DASHDOT
 10
119.806391
 20
68.859733
 11
119.806391
 21
221.051092
  0
LINE
  8
1
 62
7
  6
CONTINUOUS
 10
99.749509
 20
113.630594
 11
102.749509
 21
117.630594
  0
LINE
  8
1
 62
7
  6
CONTINUOUS
 10
102.749509
 20
117.630594
 11
101.249509
 21
117.630594
  0
LINE
  8
1
 62
7
  6
CONTINUOUS
 10
101.249509
 20
117.630594
 11
101.249509
 21
122.630594
  0
LINE
  8
1
 62
7
  6
CONTINUOUS
 10
101.249509
 20
122.630594
 11
98.249509
 21
122.630594
  0
LINE
  8
1
 62
7
  6
CONTINUOUS
 10
98.249509
 20
122.630594
 11
98.249509
 21
117.630594
  0
LINE
  8
1
 62
7
  6
CONTINUOUS
 10
98.249509
 20
117.630594
 11
96.749509
 21
117.630594
  0
LINE
  8
1
 62
7
  6
CONTINUOUS
 10
96.749509
 20
117.630594
 11
99.749509
 21
113.630594
  0
LINE
  8
1
 62
7
  6
CONTINUOUS
 10
142.536391
 20
167.852897
 11
139.536391
 21
171.852897
  0
LINE
  8
1
 62
7
  6
CONTINUOUS
 10
141.036391
 20
167.852897
 11
142.536391
 21
167.852897
  0
LINE
  8
1
 62
7
  6
CONTINUOUS
 10
141.036391
 20
162.852897
 11
141.036391
 21
167.852897
  0
LINE
  8
1
 62
7
  6
CONTINUOUS
 10
138.036391
 20
162.852897
 11
141.036391
 21
162.852897
  0
LINE
  8
1
 62
7
  6
CONTINUOUS
 10
138.036391
 20
167.852897
 11
138.036391
 21
162.852897
  0
LINE
  8
1
 62
7
  6
CONTINUOUS
 10
136.536391
 20
167.852897
 11
138.036391
 21
167.852897
  0
LINE
  8
1
 62
7
  6
CONTINUOUS
 10
139.536391
 20
171.852897
 11
136.536391
 21
167.852897
  0
TEXT
  8
1
 62
7
  6
CONTINUOUS
 10
101.560437
 20
127.699927
 40
4.000000
 41
0.916667
  1
Ｖ
  7
KANJI
 50
180.000000
 51
0.000000
  0
TEXT
  8
1
 62
7
  6
CONTINUOUS
 10
135.287014
 20
157.985157
 40
4.000000
 41
0.550000
  1
3830
  7
KANJI
 50
360.000000
 51
0.000000
  0
LINE
  8
1
 62
7
  6
DASHDOT
 10
125.730302
 20
95.992897
 11
114.291386
 21
95.992897
  0
LINE
  8
1
 62
7
  6
DASHDOT
 10
138.751060
 20
100.992896
 11
124.335760
 21
100.992896
  0
LINE
  8
1
 62
7
  6
DASHDOT
 10
107.806391
 20
107.937565
 11
107.806391
 21
93.522265
  0
LINE
  8
1
 62
7
  6
DASHDOT
 10
131.806387
 20
106.106348
 11
131.806387
 21
95.876136
  0
LINE
  8
1
 62
7
  6
DASHDOT
 10
125.730302
 20
113.242897
 11
114.291386
 21
113.242897
  0
LINE
  8
1
 62
7
  6
DASHDOT
 10
89.806391
 20
88.794823
 11
89.806391
 21
97.077691
  0
LINE
  8
1
 62
7
  6
DASHDOT
 10
85.306391
 20
92.742897
 11
94.606022
 21
92.742897
  0
LINE
  8
1
 62
7
  6
DASHDOT
 10
89.806391
 20
188.583667
 11
89.806391
 21
197.162353
  0
LINE
  8
1
 62
7
  6
DASHDOT
 10
85.306391
 20
192.742897
 11
94.408811
 21
192.742897
  0
LINE
  8
1
 62
7
  6
DASHDOT
 10
145.683711
 20
192.742897
 11
154.306391
 21
192.742897
  0
LINE
  8
1
 62
7
  6
DASHDOT
 10
149.806391
 20
188.485062
 11
149.806391
 21
197.260958
  0
LINE
  8
1
 62
7
  6
DASHDOT
 10
125.391143
 20
196.742897
 11
113.859729
 21
196.742897
  0
LINE
  8
1
 62
7
  6
DASHDOT
 10
131.806387
 20
177.548229
 11
131.806387
 21
191.963529
  0
LINE
  8
1
 62
7
  6
DASHDOT
 10
178.515129
 20
142.742897
 11
65.180430
 21
142.742897
  0
LINE
  8
1
 62
7
  6
DASHDOT
 10
100.861722
 20
184.492898
 11
115.277022
 21
184.492898
  0
LINE
  8
1
 62
7
  6
DASHDOT
 10
107.806391
 20
179.379446
 11
107.806391
 21
189.609659
  0
LINE
  8
1
 62
7
  6
DASHDOT
 10
126.692939
 20
184.492898
 11
136.923152
 21
184.492898
  0
LINE
  8
1
 62
7
  6
DASHDOT
 10
125.730301
 20
179.492895
 11
114.291384
 21
179.492895
  0
LINE
  8
1
 62
7
  6
DASHDOT
 10
112.987834
 20
100.992896
 11
101.953834
 21
100.992896
  0
LINE
  8
1
 62
7
  6
DASHDOT
 10
154.306391
 20
92.742897
 11
145.585106
 21
92.742897
  0
LINE
  8
1
 62
7
  6
DASHDOT
 10
149.806391
 20
88.597612
 11
149.806391
 21
96.979086
  0
LINE
  8
1
 62
7
  6
CONTINUOUS
 10
115.306389
 20
179.492898
 11
115.306390
 21
184.492898
  0
LINE
  8
1
 62
7
  6
CONTINUOUS
 10
115.806389
 20
179.492898
 11
115.806390
 21
184.492897
  0
LINE
  8
1
 62
7
  6
CONTINUOUS
 10
124.306389
 20
179.492898
 11
124.306390
 21
184.492897
  0
LINE
  8
1
 62
7
  6
CONTINUOUS
 10
123.806389
 20
179.492898
 11
123.806390
 21
184.492897
  0
ARC
  8
1
 62
7
  6
CONTINUOUS
 10
119.806389
 20
179.492897
 40
4.000000
 50
179.999991
 51
0.000009
  0
ARC
  8
1
 62
7
  6
CONTINUOUS
 10
119.806390
 20
184.492897
 40
4.000000
 50
0.000009
 51
78.463025
  0
ARC
  8
1
 62
7
  6
CONTINUOUS
 10
119.806390
 20
184.492897
 40
4.000000
 50
101.536939
 51
179.999991
  0
ARC
  8
1
 62
7
  6
CONTINUOUS
 10
119.806390
 20
184.492897
 40
4.500000
 50
151.791439
 51
179.999992
  0
ARC
  8
1
 62
7
  6
CONTINUOUS
 10
119.806390
 20
184.492897
 40
4.500000
 50
0.000008
 51
28.208531
  0
ARC
  8
1
 62
7
  6
CONTINUOUS
 10
119.806389
 20
179.492897
 40
4.500000
 50
179.999992
 51
-151.791416
  0
ARC
  8
1
 62
7
  6
CONTINUOUS
 10
119.806389
 20
179.492897
 40
4.500000
 50
-28.208554
 51
0.000008
  0
LINE
  8
1
 62
7
  6
CONTINUOUS
 10
121.933460
 20
175.527349
 11
126.311772
 21
171.856143
  0
LINE
  8
1
 62
7
  6
CONTINUOUS
 10
123.771937
 20
177.365827
 11
127.443142
 21
172.987514
  0
LINE
  8
1
 62
7
  6
CONTINUOUS
 10
127.443143
 20
172.987514
 11
126.311772
 21
171.856143
  0
LINE
  8
1
 62
7
  6
CONTINUOUS
 10
127.443142
 20
172.987515
 11
123.862060
 21
176.568595
  0
LINE
  8
1
 62
7
  6
CONTINUOUS
 10
122.730690
 20
175.437225
 11
126.311772
 21
171.856143
  0
LINE
  8
1
 62
7
  6
CONTINUOUS
 10
113.301006
 20
171.856145
 11
112.169636
 21
172.987517
  0
LINE
  8
1
 62
7
  6
CONTINUOUS
 10
113.301006
 20
171.856145
 11
117.679318
 21
175.527349
  0
LINE
  8
1
 62
7
  6
CONTINUOUS
 10
115.840842
 20
177.365825
 11
112.169636
 21
172.987517
  0
LINE
  8
1
 62
7
  6
CONTINUOUS
 10
113.301006
 20
171.856145
 11
116.882089
 21
175.437227
  0
LINE
  8
1
 62
7
  6
CONTINUOUS
 10
115.750719
 20
176.568597
 11
112.169636
 21
172.987517
  0
LINE
  8
1
 62
7
  6
CONTINUOUS
 10
117.679320
 20
175.527348
 11
117.600794
 21
176.155931
  0
LINE
  8
1
 62
7
  6
CONTINUOUS
 10
115.840842
 20
177.365825
 11
116.469424
 21
177.287302
  0
LINE
  8
1
 62
7
  6
CONTINUOUS
 10
123.771937
 20
177.365827
 11
123.143356
 21
177.287300
  0
LINE
  8
1
 62
7
  6
CONTINUOUS
 10
121.933460
 20
175.527349
 11
122.011984
 21
176.155929
  0
ARC
  8
1
 62
7
  6
CONTINUOUS
 10
119.806389
 20
179.492897
 40
4.500000
 50
-118.208531
 51
-61.791439
  0
ARC
  8
1
 62
7
  6
CONTINUOUS
 10
119.806390
 20
179.492897
 40
5.000000
 50
-35.793126
 51
-35.793122
  0
ARC
  8
1
 62
7
  6
CONTINUOUS
 10
119.806390
 20
179.492897
 40
5.000000
 50
-54.206925
 51
-54.206913
  0
ARC
  8
1
 62
7
  6
CONTINUOUS
 10
119.806390
 20
179.492897
 40
5.000000
 50
-125.793114
 51
-125.793113
  0
LINE
  8
1
 62
7
  6
CONTINUOUS
 10
123.862060
 20
176.568595
 11
123.143356
 21
177.287300
  0
LINE
  8
1
 62
7
  6
CONTINUOUS
 10
122.730690
 20
175.437225
 11
122.011984
 21
176.155929
  0
LINE
  8
1
 62
7
  6
CONTINUOUS
 10
115.750719
 20
176.568597
 11
116.469424
 21
177.287302
  0
LINE
  8
1
 62
7
  6
CONTINUOUS
 10
116.937760
 20
175.492897
 11
117.600794
 21
176.155931
  0
CIRCLE
  8
1
 62
7
  6
CONTINUOUS
 10
119.806390
 20
179.492897
 40
2.500003
  0
CIRCLE
  8
1
 62
7
  6
CONTINUOUS
 10
119.806389
 20
179.492897
 40
2.000000
  0
LINE
  8
1
 62
7
  6
CONTINUOUS
 10
115.806391
 20
95.992897
 11
115.806391
 21
100.992897
  0
LINE
  8
1
 62
7
  6
CONTINUOUS
 10
123.806391
 20
100.992897
 11
123.806391
 21
95.992897
  0
ARC
  8
1
 62
7
  6
CONTINUOUS
 10
119.806390
 20
100.992897
 40
4.500000
 50
106.791412
 51
180.000000
  0
ARC
  8
1
 62
7
  6
CONTINUOUS
 10
119.806390
 20
100.992897
 40
4.500000
 50
0.000000
 51
73.208552
  0
ARC
  8
1
 62
7
  6
CONTINUOUS
 10
119.806390
 20
100.992897
 40
4.500000
 50
-28.208539
 51
-28.208533
  0
ARC
  8
1
 62
7
  6
CONTINUOUS
 10
119.806391
 20
100.992897
 40
4.000000
 50
0.000000
 51
78.463041
  0
ARC
  8
1
 62
7
  6
CONTINUOUS
 10
119.806391
 20
100.992897
 40
4.000000
 50
101.536939
 51
180.000000
  0
ARC
  8
1
 62
7
  6
CONTINUOUS
 10
119.806390
 20
95.992897
 40
4.500000
 50
180.000000
 51
-151.791429
  0
ARC
  8
1
 62
7
  6
CONTINUOUS
 10
119.806391
 20
95.992897
 40
4.000000
 50
180.000000
 51
0.000000
  0
ARC
  8
1
 62
7
  6
CONTINUOUS
 10
119.806390
 20
95.992897
 40
4.500000
 50
-28.208539
 51
0.000000
  0
LINE
  8
1
 62
7
  6
CONTINUOUS
 10
115.306390
 20
95.992897
 11
115.306390
 21
100.992897
  0
LINE
  8
1
 62
7
  6
CONTINUOUS
 10
124.306390
 20
95.992897
 11
124.306390
 21
100.992897
  0
LINE
  8
1
 62
7
  6
DASHDOT
 10
125.962596
 20
184.492897
 11
113.341082
 21
184.492897
  0
CIRCLE
  8
1
 62
7
  6
CONTINUOUS
 10
119.806391
 20
95.992898
 40
2.500003
  0
CIRCLE
  8
1
 62
7
  6
CONTINUOUS
 10
119.806390
 20
95.992898
 40
2.000000
  0
LINE
  8
1
 62
7
  6
CONTINUOUS
 10
127.443144
 20
89.487516
 11
123.771939
 21
93.865828
  0
LINE
  8
1
 62
7
  6
CONTINUOUS
 10
126.311774
 20
88.356145
 11
127.443144
 21
89.487516
  0
LINE
  8
1
 62
7
  6
CONTINUOUS
 10
121.933461
 20
92.027351
 11
126.311774
 21
88.356145
  0
LINE
  8
1
 62
7
  6
CONTINUOUS
 10
113.301007
 20
88.356145
 11
117.679321
 21
92.027350
  0
LINE
  8
1
 62
7
  6
CONTINUOUS
 10
112.169636
 20
89.487516
 11
113.301007
 21
88.356145
  0
LINE
  8
1
 62
7
  6
CONTINUOUS
 10
115.840842
 20
93.865826
 11
112.169636
 21
89.487516
  0
LINE
  8
1
 62
7
  6
CONTINUOUS
 10
127.443144
 20
89.487516
 11
123.862061
 21
93.068597
  0
LINE
  8
1
 62
7
  6
CONTINUOUS
 10
122.730690
 20
91.937227
 11
126.311775
 21
88.356144
  0
LINE
  8
1
 62
7
  6
CONTINUOUS
 10
113.301007
 20
88.356145
 11
116.882090
 21
91.937228
  0
LINE
  8
1
 62
7
  6
CONTINUOUS
 10
115.750720
 20
93.068599
 11
112.169637
 21
89.487517
  0
LINE
  8
1
 62
7
  6
CONTINUOUS
 10
117.679321
 20
92.027350
 11
117.600795
 21
92.655932
  0
LINE
  8
1
 62
7
  6
CONTINUOUS
 10
115.840843
 20
93.865826
 11
116.469424
 21
93.787303
  0
LINE
  8
1
 62
7
  6
CONTINUOUS
 10
123.771938
 20
93.865828
 11
123.143357
 21
93.787301
  0
LINE
  8
1
 62
7
  6
CONTINUOUS
 10
121.933461
 20
92.027351
 11
122.011985
 21
92.655930
  0
ARC
  8
1
 62
7
  6
CONTINUOUS
 10
119.806390
 20
95.992898
 40
4.500000
 50
-118.208531
 51
-61.791439
  0
ARC
  8
1
 62
7
  6
CONTINUOUS
 10
119.806391
 20
95.992898
 40
5.000000
 50
-35.793126
 51
-35.793122
  0
ARC
  8
1
 62
7
  6
CONTINUOUS
 10
119.806391
 20
95.992898
 40
5.000000
 50
-54.206925
 51
-54.206913
  0
ARC
  8
1
 62
7
  6
CONTINUOUS
 10
119.806391
 20
95.992898
 40
5.000000
 50
-125.793114
 51
-125.793113
  0
LINE
  8
1
 62
7
  6
CONTINUOUS
 10
123.862061
 20
93.068597
 11
123.143357
 21
93.787301
  0
LINE
  8
1
 62
7
  6
CONTINUOUS
 10
122.730690
 20
91.937227
 11
122.011985
 21
92.655930
  0
LINE
  8
1
 62
7
  6
CONTINUOUS
 10
115.750720
 20
93.068599
 11
116.469424
 21
93.787303
  0
LINE
  8
1
 62
7
  6
CONTINUOUS
 10
116.937761
 20
91.992898
 11
117.600795
 21
92.655932
  0
CIRCLE
  8
1
 62
7
  6
CONTINUOUS
 10
119.806391
 20
95.992898
 40
2.500003
  0
CIRCLE
  8
1
 62
7
  6
CONTINUOUS
 10
119.806390
 20
95.992898
 40
2.000000
  0
CIRCLE
  8
1
 62
7
  6
CONTINUOUS
 10
119.806391
 20
100.992898
 40
2.500003
  0
CIRCLE
  8
1
 62
7
  6
CONTINUOUS
 10
119.806390
 20
100.992898
 40
2.000000
  0
CIRCLE
  8
1
 62
7
  6
CONTINUOUS
 10
89.806391
 20
92.742897
 40
4.000000
  0
CIRCLE
  8
1
 62
7
  6
CONTINUOUS
 10
89.806391
 20
92.742897
 40
2.500000
  0
CIRCLE
  8
1
 62
7
  6
CONTINUOUS
 10
89.806391
 20
192.742897
 40
4.000000
  0
CIRCLE
  8
1
 62
7
  6
CONTINUOUS
 10
89.806391
 20
192.742897
 40
2.500000
  0
CIRCLE
  8
1
 62
7
  6
CONTINUOUS
 10
149.806391
 20
192.742897
 40
4.000000
  0
CIRCLE
  8
1
 62
7
  6
CONTINUOUS
 10
149.806391
 20
192.742897
 40
2.500000
  0
CIRCLE
  8
1
 62
7
  6
CONTINUOUS
 10
149.806391
 20
92.742897
 40
4.000000
  0
CIRCLE
  8
1
 62
7
  6
CONTINUOUS
 10
149.806391
 20
92.742897
 40
2.500000
  0
LINE
  8
1
 62
7
  6
CONTINUOUS
 10
112.169637
 20
119.748278
 11
115.840845
 21
115.369968
  0
LINE
  8
1
 62
7
  6
CONTINUOUS
 10
113.301008
 20
120.879649
 11
112.169637
 21
119.748278
  0
LINE
  8
1
 62
7
  6
CONTINUOUS
 10
117.679322
 20
117.208445
 11
113.301008
 21
120.879649
  0
LINE
  8
1
 62
7
  6
CONTINUOUS
 10
126.311773
 20
120.879650
 11
121.933461
 21
117.208445
  0
LINE
  8
1
 62
7
  6
CONTINUOUS
 10
127.443144
 20
119.748280
 11
126.311773
 21
120.879650
  0
LINE
  8
1
 62
7
  6
CONTINUOUS
 10
123.771939
 20
115.369969
 11
127.443144
 21
119.748280
  0
LINE
  8
1
 62
7
  6
CONTINUOUS
 10
127.443144
 20
119.748280
 11
123.143357
 21
115.448494
  0
LINE
  8
1
 62
7
  6
CONTINUOUS
 10
122.011986
 20
116.579864
 11
126.311775
 21
120.879652
  0
LINE
  8
1
 62
7
  6
CONTINUOUS
 10
113.301008
 20
120.879649
 11
117.600795
 21
116.579862
  0
LINE
  8
1
 62
7
  6
CONTINUOUS
 10
116.469424
 20
115.448491
 11
112.169638
 21
119.748278
  0
LINE
  8
1
 62
7
  6
CONTINUOUS
 10
113.301008
 20
192.129648
 11
117.679319
 21
188.458445
  0
LINE
  8
1
 62
7
  6
CONTINUOUS
 10
112.169639
 20
190.998277
 11
113.301008
 21
192.129648
  0
LINE
  8
1
 62
7
  6
CONTINUOUS
 10
115.840841
 20
186.619967
 11
112.169639
 21
190.998277
  0
LINE
  8
1
 62
7
  6
CONTINUOUS
 10
116.882089
 20
188.548567
 11
113.301009
 21
192.129648
  0
LINE
  8
1
 62
7
  6
CONTINUOUS
 10
112.169639
 20
190.998277
 11
115.750719
 21
187.417196
  0
LINE
  8
1
 62
7
  6
CONTINUOUS
 10
126.311747
 20
192.129623
 11
121.933462
 21
188.458444
  0
LINE
  8
1
 62
7
  6
CONTINUOUS
 10
127.443143
 20
190.998278
 11
126.311773
 21
192.129648
  0
LINE
  8
1
 62
7
  6
CONTINUOUS
 10
123.771938
 20
186.619967
 11
127.443143
 21
190.998278
  0
LINE
  8
1
 62
7
  6
CONTINUOUS
 10
126.311772
 20
192.129648
 11
122.730691
 21
188.548568
  0
LINE
  8
1
 62
7
  6
CONTINUOUS
 10
123.862062
 20
187.417198
 11
127.486954
 21
191.042088
  0
LINE
  8
1
 62
7
  6
CONTINUOUS
 10
116.469425
 20
115.448492
 11
115.840845
 21
115.369968
  0
LINE
  8
1
 62
7
  6
CONTINUOUS
 10
117.600795
 20
116.579862
 11
117.679322
 21
117.208445
  0
LINE
  8
1
 62
7
  6
CONTINUOUS
 10
122.011986
 20
116.579864
 11
121.933461
 21
117.208445
  0
LINE
  8
1
 62
7
  6
CONTINUOUS
 10
123.771939
 20
115.369969
 11
123.143359
 21
115.448496
  0
ARC
  8
1
 62
7
  6
CONTINUOUS
 10
119.806392
 20
113.242896
 40
4.500000
 50
151.791429
 51
-106.791468
  0
ARC
  8
1
 62
7
  6
CONTINUOUS
 10
119.806392
 20
113.242896
 40
4.500000
 50
61.791470
 51
118.208544
  0
ARC
  8
1
 62
7
  6
CONTINUOUS
 10
119.806392
 20
113.242896
 40
4.500000
 50
-73.208550
 51
28.208585
  0
ARC
  8
1
 62
7
  6
CONTINUOUS
 10
119.806392
 20
113.242896
 40
4.000000
 50
-78.463038
 51
-101.536975
  0
LINE
  8
1
 62
7
  6
CONTINUOUS
 10
136.806391
 20
84.280059
 11
102.806391
 21
84.280059
  0
LINE
  8
1
 62
7
  6
CONTINUOUS
 10
102.806391
 20
84.752360
 11
102.806391
 21
84.280059
  0
LINE
  8
1
 62
7
  6
CONTINUOUS
 10
136.806391
 20
84.280059
 11
136.806391
 21
84.752360
  0
LINE
  8
1
 62
7
  6
CONTINUOUS
 10
113.806391
 20
201.205735
 11
89.806391
 21
201.205735
  0
LINE
  8
1
 62
7
  6
CONTINUOUS
 10
89.806391
 20
200.733434
 11
89.806391
 21
201.205735
  0
LINE
  8
1
 62
7
  6
CONTINUOUS
 10
149.806391
 20
201.205735
 11
149.806391
 21
200.742897
  0
LINE
  8
1
 62
7
  6
CONTINUOUS
 10
149.806391
 20
201.205735
 11
125.806391
 21
201.205735
  0
LINE
  8
1
 62
7
  6
CONTINUOUS
 10
119.006391
 20
109.323714
 11
118.506391
 21
108.934765
  0
LINE
  8
1
 62
7
  6
CONTINUOUS
 10
120.606391
 20
109.323714
 11
121.106391
 21
108.934765
  0
LINE
  8
1
 62
7
  6
CONTINUOUS
 10
119.006391
 20
104.912082
 11
118.506391
 21
105.301031
  0
LINE
  8
1
 62
7
  6
CONTINUOUS
 10
121.106391
 20
105.301030
 11
120.606391
 21
104.912082
  0
LINE
  8
1
 62
7
  6
CONTINUOUS
 10
118.506391
 20
105.301031
 11
118.506391
 21
108.934765
  0
LINE
  8
1
 62
7
  6
CONTINUOUS
 10
121.106391
 20
108.934765
 11
121.106391
 21
105.301030
  0
LINE
  8
1
 62
7
  6
CONTINUOUS
 10
119.006391
 20
104.912082
 11
119.006391
 21
109.323714
  0
LINE
  8
1
 62
7
  6
CONTINUOUS
 10
120.606391
 20
104.912082
 11
120.606391
 21
109.323714
  0
ARC
  8
1
 62
7
  6
CONTINUOUS
 10
131.806387
 20
181.992898
 40
2.500000
 50
180.000000
 51
-90.000000
  0
LINE
  8
1
 62
7
  6
CONTINUOUS
 10
129.306387
 20
181.992898
 11
129.306387
 21
186.992898
  0
ARC
  8
1
 62
7
  6
CONTINUOUS
 10
131.806387
 20
186.992898
 40
2.500000
 50
90.000000
 51
180.000000
  0
ARC
  8
1
 62
7
  6
CONTINUOUS
 10
131.806387
 20
186.992898
 40
2.500000
 50
-0.000000
 51
90.000000
  0
LINE
  8
1
 62
7
  6
CONTINUOUS
 10
134.306387
 20
186.992898
 11
134.306387
 21
181.992898
  0
ARC
  8
1
 62
7
  6
CONTINUOUS
 10
131.806387
 20
181.992898
 40
2.500000
 50
-90.000000
 51
0.000000
  0
ARC
  8
1
 62
7
  6
CONTINUOUS
 10
134.306387
 20
100.992896
 40
2.500000
 50
-90.000000
 51
0.000000
  0
LINE
  8
1
 62
7
  6
CONTINUOUS
 10
134.306387
 20
98.492896
 11
129.306387
 21
98.492896
  0
ARC
  8
1
 62
7
  6
CONTINUOUS
 10
129.306387
 20
100.992896
 40
2.500000
 50
-180.000000
 51
-90.000000
  0
ARC
  8
1
 62
7
  6
CONTINUOUS
 10
129.306387
 20
100.992896
 40
2.500000
 50
90.000000
 51
180.000000
  0
LINE
  8
1
 62
7
  6
CONTINUOUS
 10
129.306387
 20
103.492896
 11
134.306387
 21
103.492896
  0
ARC
  8
1
 62
7
  6
CONTINUOUS
 10
134.306387
 20
100.992896
 40
2.500000
 50
0.000000
 51
90.000000
  0
LINE
  8
1
 62
7
  6
CONTINUOUS
 10
113.806391
 20
201.205735
 11
113.806391
 21
200.733434
  0
LINE
  8
1
 62
7
  6
CONTINUOUS
 10
125.806391
 20
201.205735
 11
125.806391
 21
200.742897
  0
LINE
  8
1
 62
7
  6
CONTINUOUS
 10
119.006391
 20
192.823712
 11
118.506391
 21
192.434765
  0
LINE
  8
1
 62
7
  6
CONTINUOUS
 10
121.106391
 20
192.434765
 11
120.606391
 21
192.823712
  0
ARC
  8
1
 62
7
  6
CONTINUOUS
 10
119.806391
 20
196.742897
 40
4.500000
 50
-73.208553
 51
0.044702
  0
ARC
  8
1
 62
7
  6
CONTINUOUS
 10
119.806391
 20
196.742897
 40
4.500000
 50
180.000000
 51
-106.791447
  0
LINE
  8
1
 62
7
  6
CONTINUOUS
 10
119.006391
 20
188.412081
 11
118.506391
 21
188.801029
  0
LINE
  8
1
 62
7
  6
CONTINUOUS
 10
121.106391
 20
188.801029
 11
120.606391
 21
188.412081
  0
ARC
  8
1
 62
7
  6
CONTINUOUS
 10
119.806390
 20
184.492897
 40
4.500000
 50
106.791429
 51
118.208554
  0
ARC
  8
1
 62
7
  6
CONTINUOUS
 10
119.806390
 20
184.492897
 40
4.500000
 50
61.791416
 51
73.208535
  0
ARC
  8
1
 62
7
  6
CONTINUOUS
 10
119.806391
 20
196.742896
 40
4.000000
 50
-78.463041
 51
0.000020
  0
ARC
  8
1
 62
7
  6
CONTINUOUS
 10
119.806391
 20
196.742896
 40
4.000000
 50
179.999980
 51
-101.536959
  0
LINE
  8
1
 62
7
  6
CONTINUOUS
 10
124.306390
 20
200.742897
 11
123.806391
 21
201.692897
  0
LINE
  8
1
 62
7
  6
CONTINUOUS
 10
115.306390
 20
200.742897
 11
115.806391
 21
201.692897
  0
LINE
  8
1
 62
7
  6
CONTINUOUS
 10
115.306390
 20
200.742897
 11
104.806391
 21
200.742897
  0
LINE
  8
1
 62
7
  6
CONTINUOUS
 10
134.806391
 20
200.742897
 11
124.306390
 21
200.742897
  0
ARC
  8
1
 62
7
  6
CONTINUOUS
 10
156.256391
 20
197.692897
 40
4.000000
 50
-0.000000
 51
90.000000
  0
ARC
  8
1
 62
7
  6
CONTINUOUS
 10
83.356391
 20
197.692897
 40
4.000000
 50
90.000000
 51
-180.000000
  0
LINE
  8
1
 62
7
  6
CONTINUOUS
 10
160.256391
 20
87.792897
 11
160.256391
 21
197.692897
  0
ARC
  8
1
 62
7
  6
CONTINUOUS
 10
156.256391
 20
87.792897
 40
4.000000
 50
-90.000000
 51
0.000000
  0
LINE
  8
1
 62
7
  6
CONTINUOUS
 10
83.356391
 20
83.792897
 11
156.256391
 21
83.792897
  0
LINE
  8
1
 62
7
  6
CONTINUOUS
 10
79.356391
 20
197.692897
 11
79.356391
 21
87.792897
  0
ARC
  8
1
 62
7
  6
CONTINUOUS
 10
83.356391
 20
87.792897
 40
4.000000
 50
180.000000
 51
-90.000000
  0
LINE
  8
1
 62
7
  6
CONTINUOUS
 10
156.256391
 20
201.692897
 11
123.806391
 21
201.692897
  0
LINE
  8
1
 62
7
  6
CONTINUOUS
 10
115.806391
 20
201.692897
 11
83.356391
 21
201.692897
  0
LINE
  8
1
 62
7
  6
CONTINUOUS
 10
115.306391
 20
196.742897
 11
115.306391
 21
200.742897
  0
LINE
  8
1
 62
7
  6
CONTINUOUS
 10
124.306390
 20
196.746408
 11
124.306390
 21
200.742897
  0
LINE
  8
1
 62
7
  6
CONTINUOUS
 10
123.806391
 20
196.742896
 11
123.806391
 21
201.692897
  0
LINE
  8
1
 62
7
  6
CONTINUOUS
 10
115.806391
 20
196.742896
 11
115.806391
 21
201.692897
  0
LINE
  8
1
 62
7
  6
CONTINUOUS
 10
121.106391
 20
188.801029
 11
121.106391
 21
192.434765
  0
LINE
  8
1
 62
7
  6
CONTINUOUS
 10
118.506391
 20
192.434765
 11
118.506391
 21
188.801029
  0
LINE
  8
1
 62
7
  6
CONTINUOUS
 10
119.006391
 20
188.412081
 11
119.006391
 21
192.823712
  0
LINE
  8
1
 62
7
  6
CONTINUOUS
 10
120.606391
 20
192.823712
 11
120.606391
 21
188.412081
  0
CIRCLE
  8
1
 62
7
  6
CONTINUOUS
 10
119.806391
 20
196.742897
 40
2.500003
  0
CIRCLE
  8
1
 62
7
  6
CONTINUOUS
 10
119.806390
 20
196.742897
 40
2.000000
  0
CIRCLE
  8
1
 62
7
  6
CONTINUOUS
 10
119.806391
 20
113.242897
 40
2.500003
  0
CIRCLE
  8
1
 62
7
  6
CONTINUOUS
 10
119.806390
 20
113.242897
 40
2.000000
  0
ARC
  8
1
 62
7
  6
CONTINUOUS
 10
97.806391
 20
133.242897
 40
3.000000
 50
180.000000
 51
-90.000000
  0
LINE
  8
1
 62
7
  6
CONTINUOUS
 10
141.806391
 20
130.242897
 11
97.806391
 21
130.242897
  0
LINE
  8
1
 62
7
  6
CONTINUOUS
 10
94.806391
 20
133.242897
 11
94.806391
 21
152.242897
  0
ARC
  8
1
 62
7
  6
CONTINUOUS
 10
97.806391
 20
152.242897
 40
3.000000
 50
90.000000
 51
180.000000
  0
LINE
  8
1
 62
7
  6
CONTINUOUS
 10
97.806391
 20
155.242897
 11
141.806391
 21
155.242897
  0
ARC
  8
1
 62
7
  6
CONTINUOUS
 10
141.806391
 20
152.242897
 40
3.000000
 50
0.000000
 51
90.000000
  0
LINE
  8
1
 62
7
  6
CONTINUOUS
 10
144.806391
 20
152.242897
 11
144.806391
 21
133.242897
  0
ARC
  8
1
 62
7
  6
CONTINUOUS
 10
141.806391
 20
133.242897
 40
3.000000
 50
-90.000000
 51
0.000000
  0
ARC
  8
1
 62
7
  6
CONTINUOUS
 10
119.806391
 20
100.992898
 40
5.000000
 50
-35.793126
 51
-35.793122
  0
ARC
  8
1
 62
7
  6
CONTINUOUS
 10
119.806391
 20
100.992898
 40
5.000000
 50
-125.793114
 51
-125.793113
  0
CIRCLE
  8
1
 62
7
  6
CONTINUOUS
 10
119.806391
 20
100.992898
 40
2.500003
  0
CIRCLE
  8
1
 62
7
  6
CONTINUOUS
 10
119.806390
 20
100.992898
 40
2.000000
  0
LINE
  8
1
 62
7
  6
CONTINUOUS
 10
115.840843
 20
186.619967
 11
116.469423
 21
186.698491
  0
LINE
  8
1
 62
7
  6
CONTINUOUS
 10
117.679319
 20
188.458445
 11
117.600794
 21
187.829863
  0
LINE
  8
1
 62
7
  6
CONTINUOUS
 10
121.933462
 20
188.458444
 11
122.011987
 21
187.829864
  0
LINE
  8
1
 62
7
  6
CONTINUOUS
 10
123.771939
 20
186.619966
 11
123.143357
 21
186.698494
  0
ARC
  8
1
 62
7
  6
CONTINUOUS
 10
119.806391
 20
184.492897
 40
5.000000
 50
144.206913
 51
144.206925
  0
ARC
  8
1
 62
7
  6
CONTINUOUS
 10
119.806391
 20
184.492897
 40
5.000000
 50
35.793113
 51
35.793114
  0
ARC
  8
1
 62
7
  6
CONTINUOUS
 10
119.806391
 20
184.492897
 40
5.000000
 50
-35.793126
 51
-35.793122
  0
ARC
  8
1
 62
7
  6
CONTINUOUS
 10
119.806391
 20
184.492897
 40
5.000000
 50
-54.206925
 51
-54.206913
  0
LINE
  8
1
 62
7
  6
CONTINUOUS
 10
115.750719
 20
187.417195
 11
116.469423
 21
186.698491
  0
LINE
  8
1
 62
7
  6
CONTINUOUS
 10
116.937760
 20
188.492897
 11
117.600794
 21
187.829863
  0
LINE
  8
1
 62
7
  6
CONTINUOUS
 10
122.730691
 20
188.548568
 11
122.011987
 21
187.829864
  0
LINE
  8
1
 62
7
  6
CONTINUOUS
 10
123.862062
 20
187.417198
 11
123.143357
 21
186.698494
  0
CIRCLE
  8
1
 62
7
  6
CONTINUOUS
 10
119.806391
 20
184.492897
 40
2.500003
  0
CIRCLE
  8
1
 62
7
  6
CONTINUOUS
 10
119.806390
 20
184.492897
 40
2.000000
  0
ARC
  8
1
 62
7
  6
CONTINUOUS
 10
167.306391
 20
76.742897
 40
4.000000
 50
-90.000000
 51
0.000000
  0
LINE
  8
1
 62
7
  6
CONTINUOUS
 10
72.306391
 20
72.742897
 11
167.306391
 21
72.742897
  0
ARC
  8
1
 62
7
  6
CONTINUOUS
 10
72.306391
 20
76.742897
 40
4.000000
 50
180.000000
 51
-90.000000
  0
LINE
  8
1
 62
7
  6
CONTINUOUS
 10
68.306391
 20
208.742897
 11
68.306391
 21
76.742897
  0
ARC
  8
1
 62
7
  6
CONTINUOUS
 10
72.306391
 20
208.742897
 40
4.000000
 50
90.000000
 51
180.000000
  0
LINE
  8
1
 62
7
  6
CONTINUOUS
 10
167.306391
 20
212.742897
 11
72.306391
 21
212.742897
  0
LINE
  8
1
 62
7
  6
CONTINUOUS
 10
171.306391
 20
76.742897
 11
171.306391
 21
208.742897
  0
ARC
  8
1
 62
7
  6
CONTINUOUS
 10
167.306391
 20
208.742897
 40
4.000000
 50
0.000000
 51
90.000000
  0
LINE
  8
1
 62
7
  6
CONTINUOUS
 10
167.256391
 20
213.692897
 11
72.356391
 21
213.692897
  0
ARC
  8
1
 62
7
  6
CONTINUOUS
 10
167.256391
 20
208.692897
 40
5.000000
 50
0.000000
 51
90.000000
  0
LINE
  8
1
 62
7
  6
CONTINUOUS
 10
172.256391
 20
208.692897
 11
172.256391
 21
76.792897
  0
ARC
  8
1
 62
7
  6
CONTINUOUS
 10
167.256391
 20
76.792897
 40
5.000000
 50
-90.000000
 51
0.000000
  0
LINE
  8
1
 62
7
  6
CONTINUOUS
 10
72.356391
 20
71.792897
 11
167.256391
 21
71.792897
  0
ARC
  8
1
 62
7
  6
CONTINUOUS
 10
72.356391
 20
208.692897
 40
5.000000
 50
90.000000
 51
180.000000
  0
LINE
  8
1
 62
7
  6
CONTINUOUS
 10
67.356391
 20
76.792897
 11
67.356391
 21
208.692897
  0
ARC
  8
1
 62
7
  6
CONTINUOUS
 10
72.356391
 20
76.792897
 40
5.000000
 50
180.000000
 51
-90.000000
  0
ARC
  8
1
 62
7
  6
CONTINUOUS
 10
107.806391
 20
103.492896
 40
2.500000
 50
0.000000
 51
90.000000
  0
LINE
  8
1
 62
7
  6
CONTINUOUS
 10
110.306391
 20
103.492896
 11
110.306391
 21
98.492896
  0
ARC
  8
1
 62
7
  6
CONTINUOUS
 10
107.806391
 20
98.492896
 40
2.500000
 50
-90.000000
 51
0.000000
  0
ARC
  8
1
 62
7
  6
CONTINUOUS
 10
107.806391
 20
98.492896
 40
2.500000
 50
180.000000
 51
-90.000000
  0
LINE
  8
1
 62
7
  6
CONTINUOUS
 10
105.306391
 20
98.492896
 11
105.306391
 21
103.492896
  0
ARC
  8
1
 62
7
  6
CONTINUOUS
 10
107.806391
 20
103.492896
 40
2.500000
 50
90.000000
 51
180.000000
  0
ARC
  8
1
 62
7
  6
CONTINUOUS
 10
105.306391
 20
184.492898
 40
2.500000
 50
90.000000
 51
180.000000
  0
LINE
  8
1
 62
7
  6
CONTINUOUS
 10
105.306391
 20
186.992898
 11
110.306391
 21
186.992898
  0
ARC
  8
1
 62
7
  6
CONTINUOUS
 10
110.306391
 20
184.492898
 40
2.500000
 50
0.000000
 51
90.000000
  0
ARC
  8
1
 62
7
  6
CONTINUOUS
 10
110.306391
 20
184.492898
 40
2.500000
 50
-90.000000
 51
0.000000
  0
LINE
  8
1
 62
7
  6
CONTINUOUS
 10
110.306391
 20
181.992898
 11
105.306391
 21
181.992898
  0
ARC
  8
1
 62
7
  6
CONTINUOUS
 10
105.306391
 20
184.492898
 40
2.500000
 50
180.000000
 51
-90.000000
  0
ARC
  8
1
 62
7
  6
CONTINUOUS
 10
156.306391
 20
197.742897
 40
3.000000
 50
0.000000
 51
90.000000
  0
LINE
  8
1
 62
7
  6
CONTINUOUS
 10
159.306391
 20
197.742897
 11
159.306391
 21
87.742897
  0
ARC
  8
1
 62
7
  6
CONTINUOUS
 10
156.306391
 20
87.742897
 40
3.000000
 50
-90.000000
 51
0.000000
  0
LINE
  8
1
 62
7
  6
CONTINUOUS
 10
83.306391
 20
84.742897
 11
156.306391
 21
84.742897
  0
ARC
  8
1
 62
7
  6
CONTINUOUS
 10
83.306391
 20
197.742897
 40
3.000000
 50
90.000000
 51
180.000000
  0
LINE
  8
1
 62
7
  6
CONTINUOUS
 10
80.306391
 20
87.742897
 11
80.306391
 21
197.742897
  0
ARC
  8
1
 62
7
  6
CONTINUOUS
 10
83.306391
 20
87.742897
 40
3.000000
 50
180.000000
 51
-90.000000
  0
LINE
  8
1
 62
7
  6
CONTINUOUS
 10
156.306391
 20
200.742897
 11
134.806391
 21
200.742897
  0
LINE
  8
1
 62
7
  6
CONTINUOUS
 10
104.806391
 20
200.742897
 11
83.306391
 21
200.742897
  0
LINE
  8
1
 62
7
  6
CONTINUOUS
 10
230.157313
 20
243.862589
 11
250.157370
 21
243.862589
  0
LINE
  8
1
 62
7
  6
CONTINUOUS
 10
230.157313
 20
245.862589
 11
230.157313
 21
211.902740
  0
LINE
  8
1
 62
7
  6
CONTINUOUS
 10
250.157370
 20
245.862589
 11
250.157370
 21
215.692897
  0
LINE
  8
1
 62
7
  6
CONTINUOUS
 10
230.157313
 20
243.862589
 11
232.475535
 21
244.483755
  0
LINE
  8
1
 62
7
  6
CONTINUOUS
 10
230.157313
 20
243.862589
 11
232.475535
 21
243.241424
  0
LINE
  8
1
 62
7
  6
CONTINUOUS
 10
250.157370
 20
243.862589
 11
247.839148
 21
243.241424
  0
LINE
  8
1
 62
7
  6
CONTINUOUS
 10
250.157370
 20
243.862589
 11
247.839148
 21
244.483755
  0
TEXT
  8
1
 62
7
  6
CONTINUOUS
 10
238.557342
 20
244.362589
 40
3.000000
 41
0.566667
  1
20
  7
KANJI
 50
0.000000
 51
0.000000
  0
LINE
  8
1
 62
7
  6
CONTINUOUS
 10
260.156950
 20
213.692870
 11
260.156950
 21
71.945910
  0
LINE
  8
1
 62
7
  6
CONTINUOUS
 10
262.156950
 20
213.692870
 11
252.156793
 21
213.692870
  0
LINE
  8
1
 62
7
  6
CONTINUOUS
 10
262.156950
 20
71.945910
 11
252.156793
 21
71.945910
  0
LINE
  8
1
 62
7
  6
CONTINUOUS
 10
260.156950
 20
213.692870
 11
260.778115
 21
211.374648
  0
LINE
  8
1
 62
7
  6
CONTINUOUS
 10
260.156950
 20
213.692870
 11
259.535784
 21
211.374648
  0
LINE
  8
1
 62
7
  6
CONTINUOUS
 10
260.156950
 20
71.945910
 11
259.535784
 21
74.264132
  0
LINE
  8
1
 62
7
  6
CONTINUOUS
 10
260.156950
 20
71.945910
 11
260.778115
 21
74.264132
  0
TEXT
  8
1
 62
7
  6
CONTINUOUS
 10
259.656950
 20
140.369390
 40
3.000000
 41
0.566667
  1
142
  7
KANJI
 50
90.000000
 51
0.000000
  0
LINE
  8
1
 62
7
  6
CONTINUOUS
 10
250.157370
 20
213.692897
 11
250.156793
 21
71.792897
  0
LINE
  8
1
 62
7
  6
CONTINUOUS
 10
233.000318
 20
212.898619
 11
250.157370
 21
213.692897
  0
LINE
  8
1
 62
7
  6
CONTINUOUS
 10
250.156793
 20
71.792897
 11
232.999829
 21
72.587312
  0
LINE
  8
1
 62
7
  6
CONTINUOUS
 10
230.156849
 20
75.583210
 11
230.157313
 21
209.902740
  0
ARC
  8
1
 62
7
  6
CONTINUOUS
 10
233.157313
 20
209.902729
 40
3.000000
 50
92.999762
 51
179.999803
  0
ARC
  8
1
 62
7
  6
CONTINUOUS
 10
233.156849
 20
75.583200
 40
3.000000
 50
179.999803
 51
-93.000233
  0
TEXT
  8
15
 62
96
  6
CONTINUOUS
 10
200.856949
 20
20.205001
 40
3.000000
 41
0.944444
  1
＊　記載されている会社名、製品名は、登録商標または商標です。
  7
KANJI
 50
0.000000
 51
0.000000
  0
TEXT
  8
15
 62
96
  6
DIVIDE
 10
359.727850
 20
245.060601
 40
3.000000
 41
0.833333
  1
黒　色
  7
KANJI
 50
0.000000
 51
0.000000
  0
ENDSEC
  0
EOF
