  0
SECTION
  2
HEADER
  9
$ACADVER
  1
AC1003
  9
$INSBASE
 10
0.000000
 20
0.000000
  9
$EXTMIN
 10
0.000000
 20
0.000000
  9
$EXTMAX
 10
840.000000
 20
594.000000
  9
$LIMMIN
 10
0.000000
 20
0.000000
  9
$LIMMAX
 10
840.000000
 20
594.000000
  9
$VIEWCTR
 10
420.000000
 20
297.000000
  9
$VIEWSIZE
 40
594.000000
  9
$PEXTMIN
 10
0.000000
 20
0.000000
 30
0.000000
  9
$PEXTMAX
 10
420.000000
 20
297.000000
 30
0.000000
  9
$SNAPMODE
 70
     0
  9
$SNAPUNIT
 10
1.000000
 20
1.000000
  9
$SNAPBASE
 10
0.000000
 20
0.000000
  9
$SNAPANG
 50
0.000000
  9
$SNAPISOPAIR
 70
     0
  9
$SNAPSTYLE
 70
     0
  9
$GRIDMODE
 70
     0
  9
$GRIDUNIT
 10
0.000000
 20
0.000000
  9
$ORTHOMODE
 70
     0
  9
$REGENMODE
 70
     1
  9
$FILLMODE
 70
     1
  9
$QTEXTMODE
 70
     0
  9
$DRAGMODE
 70
     2
  9
$LTSCALE
 40
0.500000
  9
$OSMODE
 70
     0
  9
$ATTMODE
 70
     1
  9
$TEXTSIZE
 40
0.200000
  9
$TRACEWID
 40
0.050000
  9
$TEXTSTYLE
  7
STANDARD
  9
$CLAYER
  8
0
  9
$CELTYPE
  6
BYLAYER
  9
$CECOLOR
 62
   256
  9
$DIMSCALE
 40
1.000000
  9
$DIMASZ
 40
1.000000
  9
$DIMEXO
 40
0.000000
  9
$DIMDLI
 40
0.500000
  9
$DIMRND
 40
0.000000
  9
$DIMDLE
 40
0.000000
  9
$DIMEXE
 40
0.000000
  9
$DIMTP
 40
0.000000
  9
$DIMTM
 40
0.000000
  9
$DIMTXT
 40
0.180000
  9
$DIMCEN
 40
0.000000
  9
$DIMTSZ
 40
0.000000
  9
$DIMTOL
 70
     0
  9
$DIMLIM
 70
     0
  9
$DIMTIH
 70
     1
  9
$DIMTOH
 70
     1
  9
$DIMSE1
 70
     0
  9
$DIMSE2
 70
     0
  9
$DIMTAD
 70
     0
  9
$DIMZIN
 70
     0
  9
$DIMBLK
  1

  9
$DIMASO
 70
     0
  9
$DIMSHO
 70
     0
  9
$DIMPOST
  1

  9
$DIMAPOST
  1

  9
$DIMALT
 70
     0
  9
$DIMALTD
 70
     0
  9
$DIMALTF
 40
25.400000
  9
$DIMLFAC
 40
1.000000
  9
$DIMTOFL
 70
     0
  9
$DIMTVP
 40
0.000000
  9
$DIMTIX
 70
     0
  9
$DIMSOXD
 70
     0
  9
$DIMSAH
 70
     0
  9
$DIMBLKL
  1

  9
$DIMBLKR
  1

  9
$LUNITS
 70
     2
  9
$LUPREC
 70
     2
  9
$AXISMODE
 70
     0
  9
$AXISUNIT
 10
1.000000
 20
1.000000
  9
$SKETCHINC
 40
0.000000
  9
$FILLETRAD
 40
0.000000
  9
$AUNITS
 70
     1
  9
$AUPREC
 70
     2
  9
$MENU
  1
ACAD
  9
$ELEVATION
 40
0.000000
  9
$THICKNESS
 40
0.000000
  9
$VIEWDIR
 10
0.000000
 20
0.000000
 30
1.000000
  9
$LIMCHECK
 70
     1
  9
$BLIPMODE
 70
     1
  9
$CHAMFERA
 40
0.000000
  9
$CHAMFERB
 40
0.000000
  9
$FASTZOOM
 70
     1
  9
$SKPOLY
 70
     0
  9
$TDCREATE
 40
0.000000
  9
$TDUPDATE
 40
0.000000
  9
$TDINDWG
 40
0.000000
  9
$TDUSRTIMER
 40
0.000000
  9
$USRTIMER
 70
     1
  9
$ANGBASE
 50
0.000000
  9
$ANGDIR
 70
     0
  9
$PDMODE
 70
     0
  9
$PDSIZE
 40
0.000000
  9
$PLINEWID
 40
0.000000
  9
$COORDS
 70
     2
  9
$USERI1
 70
     0
  9
$USERI2
 70
     0
  9
$USERI3
 70
     0
  9
$USERI4
 70
     0
  9
$USERI5
 70
     0
  9
$USERR1
 40
0.000000
  9
$USERR2
 40
0.000000
  9
$USERR3
 40
0.000000
  9
$USERR4
 40
0.000000
  9
$USERR5
 40
0.000000
  0
ENDSEC
  0
SECTION
  2
TABLES
  0
TABLE
  2
LTYPE
 70
     5
  0
LTYPE
  2
CONTINUOUS
 70
    64
  3
Solid line
 72
    65
 73
     0
 40
0.0
  0
LTYPE
  2
HIDDEN
 70
    64
  3
------------------------
 72
    65
 73
     2
 40
12.6
 49
8.4
 49
-4.2
  0
LTYPE
  2
DOT
 70
    64
  3
････････････････････････
 72
    65
 73
     2
 40
8.0
 49
6.0
 49
-2.0
  0
LTYPE
  2
DASHDOT
 70
    64
  3
--･--･--･--･--･--･--･--
 72
    65
 73
     4
 40
50.5
 49
30.0
 49
-9.0
 49
2.5
 49
-9.0
  0
LTYPE
  2
DIVIDE
 70
    64
  3
--･･--･･--･･--･･--･･--
 72
    65
 73
     6
 40
58.0
 49
30.0
 49
-9.0
 49
2.5
 49
-5.0
 49
2.5
 49
-9.0
  0
ENDTAB
  0
TABLE
  2
LAYER
 70
3
  0
LAYER
  2
1
 70
64
 62
7
  6
CONTINUOUS
  0
LAYER
  2
2
 70
64
 62
134
  6
CONTINUOUS
  0
LAYER
  2
15
 70
64
 62
96
  6
CONTINUOUS
  0
ENDTAB
  0
TABLE
  2
STYLE
 70
     2
  0
STYLE
  2
STANDARD
 70
    64
 40
0.0
 41
1.0
 50
0.0
 71
     0
 42
0.2
  3
TXT
  4

  0
STYLE
  2
KANJI
 70
    64
 40
0.0
 41
1.0
 50
0.0
 71
     0
 42
0.2
  3
TXT
  4
BIGFONT
  0
ENDTAB
  0
TABLE
  2
VIEW
 70
     0
  0
ENDTAB
  0
ENDSEC
  0
SECTION
  2
BLOCKS
  0
ENDSEC
  0
SECTION
  2
ENTITIES
  0
LINE
  8
15
 62
96
  6
CONTINUOUS
 10
30.000000
 20
544.151584
 11
30.000000
 21
30.000000
  0
LINE
  8
15
 62
96
  6
CONTINUOUS
 10
30.000000
 20
30.000000
 11
800.227081
 21
30.000000
  0
LINE
  8
15
 62
96
  6
CONTINUOUS
 10
728.879008
 20
41.403554
 11
703.946332
 21
41.403554
  0
TEXT
  8
15
 62
96
  6
CONTINUOUS
 10
668.409370
 20
39.382282
 40
3.601062
 41
1.018519
  1
出入管理システム
  7
KANJI
 50
0.000000
 51
0.000000
  0
TEXT
  8
15
 62
96
  6
CONTINUOUS
 10
668.550527
 20
31.618634
 40
7.202123
 41
1.782407
  1
株式会社
  7
KANJI
 50
0.000000
 51
0.000000
  0
LINE
  8
15
 62
96
  6
CONTINUOUS
 10
628.756797
 20
31.757640
 11
635.092369
 21
31.757640
  0
LINE
  8
15
 62
96
  6
CONTINUOUS
 10
666.038375
 20
39.457096
 11
666.038375
 21
41.888499
  0
LINE
  8
15
 62
96
  6
CONTINUOUS
 10
663.404362
 20
39.457096
 11
666.038375
 21
39.457096
  0
LINE
  8
15
 62
96
  6
CONTINUOUS
 10
663.404362
 20
31.757640
 11
663.404362
 21
39.457096
  0
LINE
  8
15
 62
96
  6
CONTINUOUS
 10
660.567717
 20
31.757640
 11
663.404362
 21
31.757640
  0
LINE
  8
15
 62
96
  6
CONTINUOUS
 10
658.863116
 20
31.757640
 11
655.299669
 21
31.757640
  0
LINE
  8
15
 62
96
  6
CONTINUOUS
 10
640.508608
 20
31.757640
 11
649.221143
 21
31.757640
  0
LINE
  8
15
 62
96
  6
CONTINUOUS
 10
640.508608
 20
36.012600
 11
640.508608
 21
31.757640
  0
LINE
  8
15
 62
96
  6
CONTINUOUS
 10
635.092369
 20
31.757640
 11
644.966187
 21
41.533696
  0
LINE
  8
15
 62
96
  6
CONTINUOUS
 10
644.966187
 20
41.533696
 11
644.966187
 21
36.012600
  0
LINE
  8
15
 62
96
  6
CONTINUOUS
 10
644.966187
 20
36.012600
 11
640.508608
 21
36.012600
  0
LINE
  8
15
 62
96
  6
CONTINUOUS
 10
649.221143
 20
37.430920
 11
655.299669
 21
31.757640
  0
ARC
  8
15
 62
96
  6
CONTINUOUS
 10
654.083963
 20
38.444008
 40
1.013088
 50
-90.000000
 51
90.000000
  0
LINE
  8
15
 62
96
  6
CONTINUOUS
 10
649.221143
 20
37.430920
 11
654.083963
 21
37.430920
  0
LINE
  8
15
 62
96
  6
CONTINUOUS
 10
650.031617
 20
39.457096
 11
654.083963
 21
39.457096
  0
LINE
  8
15
 62
96
  6
CONTINUOUS
 10
650.031617
 20
41.888499
 11
650.031617
 21
39.457096
  0
LINE
  8
15
 62
96
  6
CONTINUOUS
 10
650.031617
 20
41.888499
 11
654.851778
 21
41.888499
  0
ARC
  8
15
 62
96
  6
CONTINUOUS
 10
654.467866
 20
38.444008
 40
3.465820
 50
-76.055153
 51
83.640296
  0
LINE
  8
15
 62
96
  6
CONTINUOUS
 10
655.299669
 20
35.083527
 11
658.863116
 21
31.757640
  0
LINE
  8
15
 62
96
  6
CONTINUOUS
 10
666.038375
 20
41.888499
 11
657.933686
 21
41.888499
  0
LINE
  8
15
 62
96
  6
CONTINUOUS
 10
657.933686
 20
41.888499
 11
657.933686
 21
39.457096
  0
LINE
  8
15
 62
96
  6
CONTINUOUS
 10
657.933686
 20
39.457096
 11
660.567717
 21
39.457096
  0
LINE
  8
15
 62
96
  6
CONTINUOUS
 10
660.567717
 20
39.457096
 11
660.567717
 21
31.757640
  0
TEXT
  8
15
 62
96
  6
CONTINUOUS
 10
621.036305
 20
95.928688
 40
5.001474
 41
0.900000
  1
製品名
  7
KANJI
 50
0.000000
 51
0.000000
  0
LINE
  8
15
 62
96
  6
CONTINUOUS
 10
620.173997
 20
30.000000
 11
620.173997
 21
120.026556
  0
LINE
  8
15
 62
96
  6
CONTINUOUS
 10
620.173997
 20
102.021247
 11
800.227081
 21
102.021247
  0
LINE
  8
15
 62
96
  6
CONTINUOUS
 10
620.173997
 20
102.021234
 11
800.227081
 21
102.021247
  0
LINE
  8
15
 62
96
  6
CONTINUOUS
 10
800.227081
 20
54.007092
 11
620.173997
 21
54.007078
  0
TEXT
  8
15
 62
96
  6
CONTINUOUS
 10
621.665981
 20
78.177051
 40
5.001474
 41
0.900000
  1
縮尺（Ａ３）
  7
KANJI
 50
0.000000
 51
0.000000
  0
LINE
  8
15
 62
96
  6
CONTINUOUS
 10
650.182845
 20
66.010619
 11
650.182845
 21
54.007080
  0
LINE
  8
15
 62
96
  6
CONTINUOUS
 10
649.221143
 20
31.757640
 11
649.221143
 21
52.019363
  0
LINE
  8
15
 62
96
  6
CONTINUOUS
 10
649.221143
 20
52.019363
 11
628.756797
 21
31.757640
  0
LINE
  8
15
 62
96
  6
CONTINUOUS
 10
648.687832
 20
51.491333
 11
649.221143
 21
51.491333
  0
TEXT
  8
15
 62
96
  6
CONTINUOUS
 10
733.224966
 20
30.773985
 40
20.005898
 41
0.833333
  1
アート
  7
KANJI
 50
0.000000
 51
0.000000
  0
TEXT
  8
15
 62
96
  6
CONTINUOUS
 10
624.450470
 20
57.026766
 40
5.001474
 41
0.900000
  1
図面番号
  7
KANJI
 50
0.000000
 51
0.000000
  0
TEXT
  8
15
 62
96
  6
CONTINUOUS
 10
752.320241
 20
77.711739
 40
5.001474
 41
0.900000
  1
作図
  7
KANJI
 50
0.000000
 51
0.000000
  0
LINE
  8
15
 62
96
  6
CONTINUOUS
 10
650.182845
 20
84.015925
 11
650.182845
 21
66.010619
  0
LINE
  8
15
 62
96
  6
CONTINUOUS
 10
700.197590
 20
84.015925
 11
700.197590
 21
66.010623
  0
LINE
  8
15
 62
96
  6
CONTINUOUS
 10
750.212336
 20
84.015925
 11
750.212336
 21
66.010627
  0
LINE
  8
15
 62
96
  6
CONTINUOUS
 10
620.173997
 20
533.148340
 11
800.227081
 21
533.148340
  0
LINE
  8
15
 62
96
  6
CONTINUOUS
 10
620.173997
 20
522.145096
 11
800.227081
 21
522.145096
  0
LINE
  8
15
 62
96
  6
CONTINUOUS
 10
620.173997
 20
511.141852
 11
800.227081
 21
511.141852
  0
LINE
  8
15
 62
96
  6
CONTINUOUS
 10
800.227081
 20
500.138608
 11
620.173997
 21
500.138608
  0
LINE
  8
15
 62
96
  6
CONTINUOUS
 10
620.173997
 20
489.135364
 11
800.227081
 21
489.135364
  0
LINE
  8
15
 62
96
  6
CONTINUOUS
 10
620.173997
 20
544.151584
 11
620.173997
 21
145.033928
  0
LINE
  8
15
 62
96
  6
CONTINUOUS
 10
620.173997
 20
120.026556
 11
620.173997
 21
145.033928
  0
TEXT
  8
15
 62
96
  6
DIVIDE
 10
630.176946
 20
535.649077
 40
6.001769
 41
0.833333
  1
商品コード
  7
KANJI
 50
0.000000
 51
0.000000
  0
TEXT
  8
15
 62
96
  6
DIVIDE
 10
689.194346
 20
524.645833
 40
6.001769
 41
0.833333
  1
定　　　　　格
  7
KANJI
 50
0.000000
 51
0.000000
  0
LINE
  8
15
 62
96
  6
CONTINUOUS
 10
800.220119
 20
290.869593
 11
800.220119
 21
295.133722
  0
LINE
  8
15
 62
96
  6
CONTINUOUS
 10
30.000000
 20
544.151584
 11
800.227600
 21
544.151584
  0
LINE
  8
15
 62
96
  6
CONTINUOUS
 10
800.227600
 20
29.999354
 11
800.227600
 21
544.150938
  0
TEXT
  8
15
 62
96
  6
CONTINUOUS
 10
621.035263
 20
113.255697
 40
5.001474
 41
0.900000
  1
型　式
  7
KANJI
 50
0.000000
 51
0.000000
  0
LINE
  8
15
 62
96
  6
CONTINUOUS
 10
620.172955
 20
119.026247
 11
800.226039
 21
119.026247
  0
LINE
  8
15
 62
96
  6
CONTINUOUS
 10
669.905314
 20
544.151584
 11
669.905314
 21
533.148340
  0
LINE
  8
15
 62
96
  6
CONTINUOUS
 10
620.172955
 20
130.029491
 11
800.226039
 21
130.029491
  0
TEXT
  8
15
 62
96
  6
CONTINUOUS
 10
632.576612
 20
121.526984
 40
6.001769
 41
0.944444
  1
図面履歴
  7
KANJI
 50
-0.000000
 51
0.000000
  0
LINE
  8
15
 62
96
  6
CONTINUOUS
 10
620.172955
 20
119.026247
 11
800.226039
 21
119.026247
  0
LINE
  8
15
 62
96
  6
CONTINUOUS
 10
670.187701
 20
130.029491
 11
670.187701
 21
119.026247
  0
LINE
  8
15
 62
96
  6
CONTINUOUS
 10
620.172955
 20
119.026247
 11
800.226039
 21
119.026247
  0
LINE
  8
15
 62
96
  6
CONTINUOUS
 10
710.241002
 20
66.007085
 11
710.241002
 21
54.007085
  0
LINE
  8
15
 62
96
  6
CONTINUOUS
 10
724.241002
 20
66.007095
 11
724.241002
 21
54.007095
  0
TEXT
  8
15
 62
96
  6
CONTINUOUS
 10
712.264335
 20
57.242959
 40
5.000000
 41
0.900000
  1
日付
  7
KANJI
 50
0.000000
 51
0.000000
  0
LINE
  8
15
 62
96
  6
CONTINUOUS
 10
776.227081
 20
66.007090
 11
776.227081
 21
54.007090
  0
LINE
  8
15
 62
96
  6
CONTINUOUS
 10
782.328460
 20
64.487090
 11
782.328460
 21
55.527090
  0
CIRCLE
  8
15
 62
96
  6
CONTINUOUS
 10
782.328460
 20
60.007090
 40
1.920000
  0
CIRCLE
  8
15
 62
96
  6
CONTINUOUS
 10
782.328460
 20
60.007090
 40
3.200000
  0
LINE
  8
15
 62
96
  6
CONTINUOUS
 10
787.607002
 20
61.927090
 11
787.607002
 21
58.087090
  0
LINE
  8
15
 62
96
  6
CONTINUOUS
 10
797.847002
 20
63.207090
 11
797.847002
 21
56.807090
  0
LINE
  8
15
 62
96
  6
CONTINUOUS
 10
787.607002
 20
61.927090
 11
797.847002
 21
63.207090
  0
LINE
  8
15
 62
96
  6
CONTINUOUS
 10
787.607002
 20
58.087090
 11
797.847002
 21
56.807090
  0
LINE
  8
15
 62
96
  6
CONTINUOUS
 10
777.848460
 20
60.007090
 11
798.939002
 21
60.007090
  0
TEXT
  8
15
 62
96
  6
CONTINUOUS
 10
651.605163
 20
78.365937
 40
5.001474
 41
0.900000
  1
承認
  7
KANJI
 50
0.000000
 51
0.000000
  0
TEXT
  8
15
 62
96
  6
CONTINUOUS
 10
701.619909
 20
78.365937
 40
5.001474
 41
0.900000
  1
検図
  7
KANJI
 50
0.000000
 51
0.000000
  0
TEXT
  8
15
 62
96
  6
CONTINUOUS
 10
720.835107
 20
69.141220
 40
10.002949
 41
0.900000
  1
辻
  7
KANJI
 50
0.000000
 51
0.000000
  0
TEXT
  8
15
 62
96
  6
CONTINUOUS
 10
664.974161
 20
69.141220
 40
10.002949
 41
0.900000
  1
仲代
  7
KANJI
 50
0.000000
 51
0.000000
  0
LINE
  8
15
 62
96
  6
CONTINUOUS
 10
800.227600
 20
66.010630
 11
620.173997
 21
66.010617
  0
LINE
  8
15
 62
96
  6
CONTINUOUS
 10
620.173997
 20
84.015925
 11
800.227600
 21
84.015925
  0
TEXT
  8
15
 62
96
  6
CONTINUOUS
 10
767.671106
 20
69.141220
 40
10.002949
 41
0.900000
  1
細川
  7
KANJI
 50
0.000000
 51
0.000000
  0
TEXT
  8
15
 62
96
  6
CONTINUOUS
 10
728.811045
 20
56.887915
 40
6.001769
 41
0.603448
  1
2007年09月05日
  7
KANJI
 50
0.000000
 51
0.000000
  0
TEXT
  8
15
 62
96
  6
DIVIDE
 10
636.178716
 20
513.642589
 40
6.001769
 41
0.833333
  1
筐　体
  7
KANJI
 50
0.000000
 51
0.000000
  0
TEXT
  8
15
 62
96
  6
DIVIDE
 10
636.178716
 20
502.639345
 40
6.001769
 41
0.833333
  1
材　質
  7
KANJI
 50
0.000000
 51
0.000000
  0
TEXT
  8
15
 62
96
  6
DIVIDE
 10
636.178716
 20
491.636101
 40
6.001769
 41
0.833333
  1
仕　上
  7
KANJI
 50
0.000000
 51
0.000000
  0
TEXT
  8
15
 62
96
  6
DIVIDE
 10
723.312261
 20
491.710315
 40
6.001769
 41
0.833333
  1
粉体塗装
  7
KANJI
 50
0.000000
 51
0.000000
  0
TEXT
  8
15
 62
96
  6
CONTINUOUS
 10
689.534293
 20
87.887221
 40
10.002949
 41
0.900000
  1
副制御盤
  7
KANJI
 50
0.000000
 51
0.000000
  0
TEXT
  8
15
 62
96
  6
CONTINUOUS
 10
625.843729
 20
69.030416
 40
6.001769
 41
0.833333
  1
１：１０
  7
KANJI
 50
0.000000
 51
0.000000
  0
LINE
  8
1
 62
7
  6
CONTINUOUS
 10
119.441402
 20
259.361891
 11
239.441402
 21
259.361891
  0
LINE
  8
1
 62
7
  6
CONTINUOUS
 10
123.441403
 20
263.361892
 11
235.441403
 21
263.361892
  0
LINE
  8
1
 62
7
  6
CONTINUOUS
 10
289.441402
 20
259.361891
 11
321.441402
 21
259.361891
  0
CIRCLE
  8
1
 62
7
  6
CONTINUOUS
 10
375.441402
 20
271.361891
 40
1.600000
  0
LINE
  8
1
 62
7
  6
CONTINUOUS
 10
491.441402
 20
259.361891
 11
371.441402
 21
259.361891
  0
CIRCLE
  8
1
 62
7
  6
CONTINUOUS
 10
487.441402
 20
271.361891
 40
1.600000
  0
LINE
  8
1
 62
7
  6
CONTINUOUS
 10
406.441402
 20
272.361891
 11
406.441402
 21
264.361891
  0
LINE
  8
1
 62
7
  6
CONTINUOUS
 10
456.441402
 20
264.361891
 11
456.441402
 21
272.361891
  0
LINE
  8
1
 62
7
  6
CONTINUOUS
 10
406.441402
 20
264.361891
 11
456.441402
 21
264.361891
  0
LINE
  8
1
 62
7
  6
CONTINUOUS
 10
456.441402
 20
272.361891
 11
406.441402
 21
272.361891
  0
LINE
  8
1
 62
7
  6
DASHDOT
 10
403.387396
 20
268.361891
 11
460.621398
 21
268.361891
  0
LINE
  8
1
 62
7
  6
CONTINUOUS
 10
119.441402
 20
499.361891
 11
119.441402
 21
259.361891
  0
LINE
  8
1
 62
7
  6
CONTINUOUS
 10
239.441402
 20
259.361891
 11
239.441402
 21
499.361891
  0
LINE
  8
1
 62
7
  6
CONTINUOUS
 10
239.441402
 20
499.361891
 11
119.441402
 21
499.361891
  0
LINE
  8
1
 62
7
  6
CONTINUOUS
 10
123.441403
 20
495.361890
 11
123.441403
 21
263.361892
  0
LINE
  8
1
 62
7
  6
CONTINUOUS
 10
235.441403
 20
263.361892
 11
235.441403
 21
495.361890
  0
LINE
  8
1
 62
7
  6
CONTINUOUS
 10
235.441403
 20
495.361890
 11
123.441403
 21
495.361890
  0
LINE
  8
1
 62
7
  6
CONTINUOUS
 10
289.441402
 20
499.361891
 11
289.441402
 21
259.361891
  0
LINE
  8
1
 62
7
  6
CONTINUOUS
 10
292.441403
 20
499.361891
 11
292.441403
 21
259.361891
  0
LINE
  8
1
 62
7
  6
CONTINUOUS
 10
321.441402
 20
259.361891
 11
321.441402
 21
499.361891
  0
LINE
  8
1
 62
7
  6
CONTINUOUS
 10
321.441402
 20
499.361891
 11
289.441402
 21
499.361891
  0
LINE
  8
1
 62
7
  6
CONTINUOUS
 10
371.441402
 20
499.361891
 11
371.441402
 21
474.891236
  0
CIRCLE
  8
1
 62
7
  6
CONTINUOUS
 10
375.441402
 20
487.361891
 40
1.600000
  0
LINE
  8
1
 62
7
  6
CONTINUOUS
 10
371.441402
 20
499.361891
 11
491.441402
 21
499.361891
  0
CIRCLE
  8
1
 62
7
  6
CONTINUOUS
 10
487.441402
 20
487.361891
 40
1.600000
  0
LINE
  8
1
 62
7
  6
CONTINUOUS
 10
371.441402
 20
259.361891
 11
371.441402
 21
477.114713
  0
LINE
  8
1
 62
7
  6
CONTINUOUS
 10
491.441402
 20
499.361891
 11
491.441402
 21
259.361891
  0
LINE
  8
1
 62
7
  6
DASHDOT
 10
431.441402
 20
503.361891
 11
431.441402
 21
257.517601
  0
LINE
  8
1
 62
7
  6
CONTINUOUS
 10
129.741404
 20
379.361891
 11
107.898602
 21
388.748492
  0
LINE
  8
1
 62
7
  6
CONTINUOUS
 10
107.898602
 20
388.748492
 11
63.344688
 21
388.748492
  0
TEXT
  8
1
 62
7
  6
CONTINUOUS
 10
63.344688
 20
388.748492
 40
6.000000
 41
0.944444
  1
平面ハンドル
  7
KANJI
 50
0.000000
 51
0.000000
  0
LINE
  8
1
 62
7
  6
CONTINUOUS
 10
129.741404
 20
379.361891
 11
125.782847
 21
379.936197
  0
LINE
  8
1
 62
7
  6
CONTINUOUS
 10
129.741404
 20
379.361891
 11
126.600346
 21
381.838533
  0
LINE
  8
1
 62
7
  6
CONTINUOUS
 10
134.741403
 20
390.561891
 11
134.741403
 21
368.161891
  0
LINE
  8
1
 62
7
  6
CONTINUOUS
 10
134.741403
 20
368.161891
 11
130.141403
 21
368.161891
  0
LINE
  8
1
 62
7
  6
CONTINUOUS
 10
130.141403
 20
368.161891
 11
130.141403
 21
390.561891
  0
LINE
  8
1
 62
7
  6
CONTINUOUS
 10
130.141403
 20
390.561891
 11
134.741403
 21
390.561891
  0
ARC
  8
1
 62
7
  6
CONTINUOUS
 10
132.441403
 20
385.996204
 40
1.700000
 50
0.000000
 51
180.000000
  0
ARC
  8
1
 62
7
  6
CONTINUOUS
 10
134.641403
 20
368.261891
 40
0.600000
 50
-90.000000
 51
0.000000
  0
LINE
  8
1
 62
7
  6
CONTINUOUS
 10
134.641403
 20
367.661891
 11
130.241403
 21
367.661891
  0
ARC
  8
1
 62
7
  6
CONTINUOUS
 10
130.241403
 20
368.261891
 40
0.600000
 50
180.000000
 51
-90.000000
  0
LINE
  8
1
 62
7
  6
CONTINUOUS
 10
135.241403
 20
390.461891
 11
135.241403
 21
368.261891
  0
ARC
  8
1
 62
7
  6
CONTINUOUS
 10
134.641403
 20
390.461891
 40
0.600000
 50
0.000000
 51
90.000000
  0
LINE
  8
1
 62
7
  6
CONTINUOUS
 10
130.241403
 20
391.061891
 11
134.641403
 21
391.061891
  0
LINE
  8
1
 62
7
  6
CONTINUOUS
 10
129.641403
 20
368.261891
 11
129.641403
 21
390.461891
  0
ARC
  8
1
 62
7
  6
CONTINUOUS
 10
130.241403
 20
390.461891
 40
0.600000
 50
90.000000
 51
180.000000
  0
LINE
  8
1
 62
7
  6
CONTINUOUS
 10
130.741403
 20
385.996204
 11
130.741403
 21
371.061891
  0
ARC
  8
1
 62
7
  6
CONTINUOUS
 10
131.241403
 20
371.061891
 40
0.500000
 50
180.000000
 51
-90.000000
  0
LINE
  8
1
 62
7
  6
CONTINUOUS
 10
131.241403
 20
370.561891
 11
133.641403
 21
370.561891
  0
LINE
  8
1
 62
7
  6
CONTINUOUS
 10
134.141403
 20
371.061891
 11
134.141403
 21
385.996204
  0
ARC
  8
1
 62
7
  6
CONTINUOUS
 10
133.641403
 20
371.061891
 40
0.500000
 50
-90.000000
 51
0.000000
  0
ARC
  8
1
 62
7
  6
CONTINUOUS
 10
131.241403
 20
371.061891
 40
0.400000
 50
180.000000
 51
-90.000000
  0
LINE
  8
1
 62
7
  6
CONTINUOUS
 10
131.241403
 20
370.661891
 11
133.641403
 21
370.661891
  0
ARC
  8
1
 62
7
  6
CONTINUOUS
 10
133.641403
 20
371.061891
 40
0.400000
 50
-90.000000
 51
0.000000
  0
LINE
  8
1
 62
7
  6
CONTINUOUS
 10
130.841403
 20
371.965026
 11
130.841403
 21
371.061891
  0
ARC
  8
1
 62
7
  6
CONTINUOUS
 10
131.241403
 20
371.965026
 40
0.400000
 50
90.000000
 51
180.000000
  0
LINE
  8
1
 62
7
  6
CONTINUOUS
 10
133.641403
 20
372.365026
 11
131.241403
 21
372.365026
  0
LINE
  8
1
 62
7
  6
CONTINUOUS
 10
134.041403
 20
371.061891
 11
134.041403
 21
371.965026
  0
ARC
  8
1
 62
7
  6
CONTINUOUS
 10
133.641403
 20
371.965026
 40
0.400000
 50
0.000000
 51
90.000000
  0
LINE
  8
1
 62
7
  6
CONTINUOUS
 10
132.551697
 20
374.616986
 11
132.551697
 21
373.504676
  0
LINE
  8
1
 62
7
  6
CONTINUOUS
 10
132.551697
 20
373.504676
 11
132.317527
 21
373.504676
  0
LINE
  8
1
 62
7
  6
CONTINUOUS
 10
132.317527
 20
373.504676
 11
132.317527
 21
374.616986
  0
LINE
  8
1
 62
7
  6
CONTINUOUS
 10
132.317527
 20
374.616986
 11
132.551697
 21
374.616986
  0
LINE
  8
1
 62
7
  6
CONTINUOUS
 10
132.641403
 20
371.813458
 11
132.641403
 21
372.013458
  0
LINE
  8
1
 62
7
  6
CONTINUOUS
 10
132.641403
 20
372.013458
 11
133.441403
 21
371.513458
  0
LINE
  8
1
 62
7
  6
CONTINUOUS
 10
133.441403
 20
371.513458
 11
132.641403
 21
371.013458
  0
LINE
  8
1
 62
7
  6
CONTINUOUS
 10
132.641403
 20
371.013458
 11
132.641403
 21
371.213458
  0
LINE
  8
1
 62
7
  6
CONTINUOUS
 10
132.641403
 20
371.213458
 11
131.441403
 21
371.213458
  0
LINE
  8
1
 62
7
  6
CONTINUOUS
 10
131.441403
 20
371.213458
 11
131.441403
 21
371.813458
  0
LINE
  8
1
 62
7
  6
CONTINUOUS
 10
131.441403
 20
371.813458
 11
132.641403
 21
371.813458
  0
CIRCLE
  8
1
 62
7
  6
CONTINUOUS
 10
132.441403
 20
385.996204
 40
1.360160
  0
ARC
  8
1
 62
7
  6
CONTINUOUS
 10
131.341403
 20
371.161891
 40
0.800000
 50
180.000000
 51
-90.000000
  0
LINE
  8
1
 62
7
  6
CONTINUOUS
 10
133.541403
 20
370.361891
 11
131.341403
 21
370.361891
  0
ARC
  8
1
 62
7
  6
CONTINUOUS
 10
133.541403
 20
371.161891
 40
0.800000
 50
-90.000000
 51
0.000000
  0
LINE
  8
1
 62
7
  6
CONTINUOUS
 10
130.541403
 20
371.161891
 11
130.541403
 21
386.661891
  0
ARC
  8
1
 62
7
  6
CONTINUOUS
 10
132.441403
 20
386.661891
 40
1.900000
 50
90.000000
 51
180.000000
  0
LINE
  8
1
 62
7
  6
CONTINUOUS
 10
134.341403
 20
386.661891
 11
134.341403
 21
371.161891
  0
ARC
  8
1
 62
7
  6
CONTINUOUS
 10
132.441403
 20
386.661891
 40
1.900000
 50
0.000000
 51
90.000000
  0
LINE
  8
1
 62
7
  6
CONTINUOUS
 10
130.141403
 20
390.561891
 11
129.817396
 21
390.886412
  0
LINE
  8
1
 62
7
  6
CONTINUOUS
 10
134.741403
 20
390.561891
 11
135.080989
 21
390.870258
  0
LINE
  8
1
 62
7
  6
CONTINUOUS
 10
134.741403
 20
368.161891
 11
135.096533
 21
367.870922
  0
LINE
  8
1
 62
7
  6
CONTINUOUS
 10
130.141403
 20
368.161891
 11
129.811646
 21
367.843191
  0
CIRCLE
  8
1
 62
7
  6
CONTINUOUS
 10
132.441403
 20
374.095957
 40
0.750020
  0
LINE
  8
1
 62
7
  6
CONTINUOUS
 10
209.241402
 20
406.093372
 11
149.441402
 21
406.093372
  0
LINE
  8
1
 62
7
  6
CONTINUOUS
 10
149.441402
 20
436.993372
 11
209.241402
 21
436.993372
  0
LINE
  8
1
 62
7
  6
CONTINUOUS
 10
209.241402
 20
436.993372
 11
209.241402
 21
406.093372
  0
LINE
  8
1
 62
7
  6
CONTINUOUS
 10
149.441402
 20
406.093372
 11
149.441402
 21
436.993372
  0
LINE
  8
1
 62
7
  6
CONTINUOUS
 10
209.241402
 20
368.093372
 11
149.441402
 21
368.093372
  0
LINE
  8
1
 62
7
  6
CONTINUOUS
 10
149.441402
 20
398.993372
 11
209.241402
 21
398.993372
  0
LINE
  8
1
 62
7
  6
CONTINUOUS
 10
209.241402
 20
398.993372
 11
209.241402
 21
368.093372
  0
LINE
  8
1
 62
7
  6
CONTINUOUS
 10
149.441402
 20
368.093372
 11
149.441402
 21
398.993372
  0
LINE
  8
1
 62
7
  6
CONTINUOUS
 10
209.241402
 20
444.093372
 11
149.441402
 21
444.093372
  0
LINE
  8
1
 62
7
  6
CONTINUOUS
 10
149.441402
 20
474.993372
 11
209.241402
 21
474.993372
  0
LINE
  8
1
 62
7
  6
CONTINUOUS
 10
209.241402
 20
474.993372
 11
209.241402
 21
444.093372
  0
LINE
  8
1
 62
7
  6
CONTINUOUS
 10
149.441402
 20
444.093372
 11
149.441402
 21
474.993372
  0
LINE
  8
1
 62
7
  6
CONTINUOUS
 10
173.424473
 20
443.769891
 11
179.441402
 21
443.769891
  0
LINE
  8
1
 62
7
  6
CONTINUOUS
 10
179.241402
 20
443.969891
 11
179.241402
 21
468.969891
  0
LINE
  8
1
 62
7
  6
CONTINUOUS
 10
173.641402
 20
443.969891
 11
179.241402
 21
443.969891
  0
LINE
  8
1
 62
7
  6
CONTINUOUS
 10
173.641402
 20
468.969891
 11
173.641402
 21
443.969891
  0
LINE
  8
1
 62
7
  6
CONTINUOUS
 10
179.048945
 20
474.589294
 11
179.048945
 21
469.569891
  0
LINE
  8
1
 62
7
  6
CONTINUOUS
 10
173.824473
 20
469.569891
 11
179.048945
 21
469.569891
  0
LINE
  8
1
 62
7
  6
CONTINUOUS
 10
173.824473
 20
474.589294
 11
173.824473
 21
469.569891
  0
LINE
  8
1
 62
7
  6
CONTINUOUS
 10
173.824473
 20
474.589294
 11
179.048945
 21
474.589294
  0
LINE
  8
1
 62
7
  6
CONTINUOUS
 10
175.934670
 20
469.369891
 11
175.658548
 21
469.569716
  0
LINE
  8
1
 62
7
  6
CONTINUOUS
 10
177.039156
 20
469.369891
 11
177.290176
 21
469.569891
  0
LINE
  8
1
 62
7
  6
CONTINUOUS
 10
175.934670
 20
469.369891
 11
177.039156
 21
469.369891
  0
LINE
  8
1
 62
7
  6
CONTINUOUS
 10
173.641402
 20
468.969891
 11
179.241402
 21
468.969891
  0
LINE
  8
1
 62
7
  6
CONTINUOUS
 10
175.141402
 20
449.169891
 11
175.141402
 21
446.569891
  0
LINE
  8
1
 62
7
  6
CONTINUOUS
 10
175.141402
 20
446.569891
 11
177.741402
 21
446.569891
  0
LINE
  8
1
 62
7
  6
CONTINUOUS
 10
177.741402
 20
446.569891
 11
177.741402
 21
449.169891
  0
LINE
  8
1
 62
7
  6
CONTINUOUS
 10
177.741402
 20
449.169891
 11
175.141402
 21
449.169891
  0
LINE
  8
1
 62
7
  6
CONTINUOUS
 10
175.141402
 20
454.169891
 11
175.141402
 21
451.569891
  0
LINE
  8
1
 62
7
  6
CONTINUOUS
 10
175.141402
 20
451.569891
 11
177.741402
 21
451.569891
  0
LINE
  8
1
 62
7
  6
CONTINUOUS
 10
177.741402
 20
451.569891
 11
177.741402
 21
454.169891
  0
LINE
  8
1
 62
7
  6
CONTINUOUS
 10
177.741402
 20
454.169891
 11
175.141402
 21
454.169891
  0
CIRCLE
  8
1
 62
7
  6
CONTINUOUS
 10
176.441402
 20
457.869891
 40
0.500000
  0
CIRCLE
  8
1
 62
7
  6
CONTINUOUS
 10
176.441402
 20
461.869891
 40
0.500000
  0
CIRCLE
  8
1
 62
7
  6
CONTINUOUS
 10
176.441402
 20
465.869891
 40
0.500000
  0
LINE
  8
1
 62
7
  6
CONTINUOUS
 10
173.441402
 20
475.369891
 11
173.441402
 21
443.369891
  0
LINE
  8
1
 62
7
  6
CONTINUOUS
 10
173.441402
 20
443.369891
 11
179.441402
 21
443.369891
  0
LINE
  8
1
 62
7
  6
CONTINUOUS
 10
179.441402
 20
443.369891
 11
179.441402
 21
475.369891
  0
LINE
  8
1
 62
7
  6
CONTINUOUS
 10
179.441402
 20
475.369891
 11
173.441402
 21
475.369891
  0
LINE
  8
1
 62
7
  6
CONTINUOUS
 10
167.424473
 20
443.769891
 11
173.441402
 21
443.769891
  0
LINE
  8
1
 62
7
  6
CONTINUOUS
 10
173.241402
 20
443.969891
 11
173.241402
 21
468.969891
  0
LINE
  8
1
 62
7
  6
CONTINUOUS
 10
167.641402
 20
443.969891
 11
173.241402
 21
443.969891
  0
LINE
  8
1
 62
7
  6
CONTINUOUS
 10
167.641402
 20
468.969891
 11
167.641402
 21
443.969891
  0
LINE
  8
1
 62
7
  6
CONTINUOUS
 10
173.048945
 20
474.589294
 11
173.048945
 21
469.569891
  0
LINE
  8
1
 62
7
  6
CONTINUOUS
 10
167.824473
 20
469.569891
 11
173.048945
 21
469.569891
  0
LINE
  8
1
 62
7
  6
CONTINUOUS
 10
167.824473
 20
474.589294
 11
167.824473
 21
469.569891
  0
LINE
  8
1
 62
7
  6
CONTINUOUS
 10
167.824473
 20
474.589294
 11
173.048945
 21
474.589294
  0
LINE
  8
1
 62
7
  6
CONTINUOUS
 10
167.424473
 20
474.993372
 11
173.448945
 21
474.993372
  0
LINE
  8
1
 62
7
  6
CONTINUOUS
 10
169.934670
 20
469.369891
 11
169.658548
 21
469.569716
  0
LINE
  8
1
 62
7
  6
CONTINUOUS
 10
171.039156
 20
469.369891
 11
171.290176
 21
469.569891
  0
LINE
  8
1
 62
7
  6
CONTINUOUS
 10
169.934670
 20
469.369891
 11
171.039156
 21
469.369891
  0
LINE
  8
1
 62
7
  6
CONTINUOUS
 10
167.641402
 20
468.969891
 11
173.241402
 21
468.969891
  0
LINE
  8
1
 62
7
  6
CONTINUOUS
 10
169.141402
 20
449.169891
 11
169.141402
 21
446.569891
  0
LINE
  8
1
 62
7
  6
CONTINUOUS
 10
169.141402
 20
446.569891
 11
171.741402
 21
446.569891
  0
LINE
  8
1
 62
7
  6
CONTINUOUS
 10
171.741402
 20
446.569891
 11
171.741402
 21
449.169891
  0
LINE
  8
1
 62
7
  6
CONTINUOUS
 10
171.741402
 20
449.169891
 11
169.141402
 21
449.169891
  0
LINE
  8
1
 62
7
  6
CONTINUOUS
 10
169.141402
 20
454.169891
 11
169.141402
 21
451.569891
  0
LINE
  8
1
 62
7
  6
CONTINUOUS
 10
169.141402
 20
451.569891
 11
171.741402
 21
451.569891
  0
LINE
  8
1
 62
7
  6
CONTINUOUS
 10
171.741402
 20
451.569891
 11
171.741402
 21
454.169891
  0
LINE
  8
1
 62
7
  6
CONTINUOUS
 10
171.741402
 20
454.169891
 11
169.141402
 21
454.169891
  0
CIRCLE
  8
1
 62
7
  6
CONTINUOUS
 10
170.441402
 20
457.869891
 40
0.500000
  0
CIRCLE
  8
1
 62
7
  6
CONTINUOUS
 10
170.441402
 20
461.869891
 40
0.500000
  0
CIRCLE
  8
1
 62
7
  6
CONTINUOUS
 10
170.441402
 20
465.869891
 40
0.500000
  0
LINE
  8
1
 62
7
  6
CONTINUOUS
 10
167.441402
 20
475.369891
 11
167.441402
 21
443.369891
  0
LINE
  8
1
 62
7
  6
CONTINUOUS
 10
167.441402
 20
443.369891
 11
173.441402
 21
443.369891
  0
LINE
  8
1
 62
7
  6
CONTINUOUS
 10
173.441402
 20
443.369891
 11
173.441402
 21
475.369891
  0
LINE
  8
1
 62
7
  6
CONTINUOUS
 10
173.441402
 20
475.369891
 11
167.441402
 21
475.369891
  0
LINE
  8
1
 62
7
  6
CONTINUOUS
 10
161.424473
 20
443.769891
 11
167.441402
 21
443.769891
  0
LINE
  8
1
 62
7
  6
CONTINUOUS
 10
167.241402
 20
443.969891
 11
167.241402
 21
468.969891
  0
LINE
  8
1
 62
7
  6
CONTINUOUS
 10
161.641402
 20
443.969891
 11
167.241402
 21
443.969891
  0
LINE
  8
1
 62
7
  6
CONTINUOUS
 10
161.641402
 20
468.969891
 11
161.641402
 21
443.969891
  0
LINE
  8
1
 62
7
  6
CONTINUOUS
 10
167.048945
 20
474.589294
 11
167.048945
 21
469.569891
  0
LINE
  8
1
 62
7
  6
CONTINUOUS
 10
161.824473
 20
469.569891
 11
167.048945
 21
469.569891
  0
LINE
  8
1
 62
7
  6
CONTINUOUS
 10
161.824473
 20
474.589294
 11
161.824473
 21
469.569891
  0
LINE
  8
1
 62
7
  6
CONTINUOUS
 10
161.824473
 20
474.589294
 11
167.048945
 21
474.589294
  0
LINE
  8
1
 62
7
  6
CONTINUOUS
 10
161.424473
 20
474.993372
 11
167.448945
 21
474.993372
  0
LINE
  8
1
 62
7
  6
CONTINUOUS
 10
163.934670
 20
469.369891
 11
163.658548
 21
469.569716
  0
LINE
  8
1
 62
7
  6
CONTINUOUS
 10
165.039156
 20
469.369891
 11
165.290176
 21
469.569891
  0
LINE
  8
1
 62
7
  6
CONTINUOUS
 10
163.934670
 20
469.369891
 11
165.039156
 21
469.369891
  0
LINE
  8
1
 62
7
  6
CONTINUOUS
 10
161.641402
 20
468.969891
 11
167.241402
 21
468.969891
  0
LINE
  8
1
 62
7
  6
CONTINUOUS
 10
163.141402
 20
449.169891
 11
163.141402
 21
446.569891
  0
LINE
  8
1
 62
7
  6
CONTINUOUS
 10
163.141402
 20
446.569891
 11
165.741402
 21
446.569891
  0
LINE
  8
1
 62
7
  6
CONTINUOUS
 10
165.741402
 20
446.569891
 11
165.741402
 21
449.169891
  0
LINE
  8
1
 62
7
  6
CONTINUOUS
 10
165.741402
 20
449.169891
 11
163.141402
 21
449.169891
  0
LINE
  8
1
 62
7
  6
CONTINUOUS
 10
163.141402
 20
454.169891
 11
163.141402
 21
451.569891
  0
LINE
  8
1
 62
7
  6
CONTINUOUS
 10
163.141402
 20
451.569891
 11
165.741402
 21
451.569891
  0
LINE
  8
1
 62
7
  6
CONTINUOUS
 10
165.741402
 20
451.569891
 11
165.741402
 21
454.169891
  0
LINE
  8
1
 62
7
  6
CONTINUOUS
 10
165.741402
 20
454.169891
 11
163.141402
 21
454.169891
  0
CIRCLE
  8
1
 62
7
  6
CONTINUOUS
 10
164.441402
 20
457.869891
 40
0.500000
  0
CIRCLE
  8
1
 62
7
  6
CONTINUOUS
 10
164.441402
 20
461.869891
 40
0.500000
  0
CIRCLE
  8
1
 62
7
  6
CONTINUOUS
 10
164.441402
 20
465.869891
 40
0.500000
  0
LINE
  8
1
 62
7
  6
CONTINUOUS
 10
161.441402
 20
475.369891
 11
161.441402
 21
443.369891
  0
LINE
  8
1
 62
7
  6
CONTINUOUS
 10
161.441402
 20
443.369891
 11
167.441402
 21
443.369891
  0
LINE
  8
1
 62
7
  6
CONTINUOUS
 10
167.441402
 20
443.369891
 11
167.441402
 21
475.369891
  0
LINE
  8
1
 62
7
  6
CONTINUOUS
 10
167.441402
 20
475.369891
 11
161.441402
 21
475.369891
  0
LINE
  8
1
 62
7
  6
CONTINUOUS
 10
155.424473
 20
443.769891
 11
161.441402
 21
443.769891
  0
LINE
  8
1
 62
7
  6
CONTINUOUS
 10
161.241402
 20
443.969891
 11
161.241402
 21
468.969891
  0
LINE
  8
1
 62
7
  6
CONTINUOUS
 10
155.641402
 20
443.969891
 11
161.241402
 21
443.969891
  0
LINE
  8
1
 62
7
  6
CONTINUOUS
 10
155.641402
 20
468.969891
 11
155.641402
 21
443.969891
  0
LINE
  8
1
 62
7
  6
CONTINUOUS
 10
161.048945
 20
474.589294
 11
161.048945
 21
469.569891
  0
LINE
  8
1
 62
7
  6
CONTINUOUS
 10
155.824473
 20
469.569891
 11
161.048945
 21
469.569891
  0
LINE
  8
1
 62
7
  6
CONTINUOUS
 10
155.824473
 20
474.589294
 11
155.824473
 21
469.569891
  0
LINE
  8
1
 62
7
  6
CONTINUOUS
 10
155.824473
 20
474.589294
 11
161.048945
 21
474.589294
  0
LINE
  8
1
 62
7
  6
CONTINUOUS
 10
155.424473
 20
474.993372
 11
161.448945
 21
474.993372
  0
LINE
  8
1
 62
7
  6
CONTINUOUS
 10
157.934670
 20
469.369891
 11
157.658548
 21
469.569716
  0
LINE
  8
1
 62
7
  6
CONTINUOUS
 10
159.039156
 20
469.369891
 11
159.290176
 21
469.569891
  0
LINE
  8
1
 62
7
  6
CONTINUOUS
 10
157.934670
 20
469.369891
 11
159.039156
 21
469.369891
  0
LINE
  8
1
 62
7
  6
CONTINUOUS
 10
155.641402
 20
468.969891
 11
161.241402
 21
468.969891
  0
LINE
  8
1
 62
7
  6
CONTINUOUS
 10
157.141402
 20
449.169891
 11
157.141402
 21
446.569891
  0
LINE
  8
1
 62
7
  6
CONTINUOUS
 10
157.141402
 20
446.569891
 11
159.741402
 21
446.569891
  0
LINE
  8
1
 62
7
  6
CONTINUOUS
 10
159.741402
 20
446.569891
 11
159.741402
 21
449.169891
  0
LINE
  8
1
 62
7
  6
CONTINUOUS
 10
159.741402
 20
449.169891
 11
157.141402
 21
449.169891
  0
LINE
  8
1
 62
7
  6
CONTINUOUS
 10
157.141402
 20
454.169891
 11
157.141402
 21
451.569891
  0
LINE
  8
1
 62
7
  6
CONTINUOUS
 10
157.141402
 20
451.569891
 11
159.741402
 21
451.569891
  0
LINE
  8
1
 62
7
  6
CONTINUOUS
 10
159.741402
 20
451.569891
 11
159.741402
 21
454.169891
  0
LINE
  8
1
 62
7
  6
CONTINUOUS
 10
159.741402
 20
454.169891
 11
157.141402
 21
454.169891
  0
CIRCLE
  8
1
 62
7
  6
CONTINUOUS
 10
158.441402
 20
457.869891
 40
0.500000
  0
CIRCLE
  8
1
 62
7
  6
CONTINUOUS
 10
158.441402
 20
461.869891
 40
0.500000
  0
CIRCLE
  8
1
 62
7
  6
CONTINUOUS
 10
158.441402
 20
465.869891
 40
0.500000
  0
LINE
  8
1
 62
7
  6
CONTINUOUS
 10
155.441402
 20
475.369891
 11
155.441402
 21
443.369891
  0
LINE
  8
1
 62
7
  6
CONTINUOUS
 10
155.441402
 20
443.369891
 11
161.441402
 21
443.369891
  0
LINE
  8
1
 62
7
  6
CONTINUOUS
 10
161.441402
 20
443.369891
 11
161.441402
 21
475.369891
  0
LINE
  8
1
 62
7
  6
CONTINUOUS
 10
161.441402
 20
475.369891
 11
155.441402
 21
475.369891
  0
LINE
  8
1
 62
7
  6
CONTINUOUS
 10
155.241402
 20
443.969891
 11
155.241402
 21
468.969891
  0
LINE
  8
1
 62
7
  6
CONTINUOUS
 10
149.641402
 20
443.969891
 11
155.241402
 21
443.969891
  0
LINE
  8
1
 62
7
  6
CONTINUOUS
 10
149.641402
 20
468.969891
 11
149.641402
 21
443.969891
  0
LINE
  8
1
 62
7
  6
CONTINUOUS
 10
155.048945
 20
474.589294
 11
155.048945
 21
469.569891
  0
LINE
  8
1
 62
7
  6
CONTINUOUS
 10
149.824473
 20
469.569891
 11
155.048945
 21
469.569891
  0
LINE
  8
1
 62
7
  6
CONTINUOUS
 10
149.824473
 20
474.589294
 11
149.824473
 21
469.569891
  0
LINE
  8
1
 62
7
  6
CONTINUOUS
 10
149.824473
 20
474.589294
 11
155.048945
 21
474.589294
  0
LINE
  8
1
 62
7
  6
CONTINUOUS
 10
151.934670
 20
469.369891
 11
151.658548
 21
469.569716
  0
LINE
  8
1
 62
7
  6
CONTINUOUS
 10
153.039156
 20
469.369891
 11
153.290176
 21
469.569891
  0
LINE
  8
1
 62
7
  6
CONTINUOUS
 10
151.934670
 20
469.369891
 11
153.039156
 21
469.369891
  0
LINE
  8
1
 62
7
  6
CONTINUOUS
 10
149.641402
 20
468.969891
 11
155.241402
 21
468.969891
  0
LINE
  8
1
 62
7
  6
CONTINUOUS
 10
151.141402
 20
449.169891
 11
151.141402
 21
446.569891
  0
LINE
  8
1
 62
7
  6
CONTINUOUS
 10
151.141402
 20
446.569891
 11
153.741402
 21
446.569891
  0
LINE
  8
1
 62
7
  6
CONTINUOUS
 10
153.741402
 20
446.569891
 11
153.741402
 21
449.169891
  0
LINE
  8
1
 62
7
  6
CONTINUOUS
 10
153.741402
 20
449.169891
 11
151.141402
 21
449.169891
  0
LINE
  8
1
 62
7
  6
CONTINUOUS
 10
151.141402
 20
454.169891
 11
151.141402
 21
451.569891
  0
LINE
  8
1
 62
7
  6
CONTINUOUS
 10
151.141402
 20
451.569891
 11
153.741402
 21
451.569891
  0
LINE
  8
1
 62
7
  6
CONTINUOUS
 10
153.741402
 20
451.569891
 11
153.741402
 21
454.169891
  0
LINE
  8
1
 62
7
  6
CONTINUOUS
 10
153.741402
 20
454.169891
 11
151.141402
 21
454.169891
  0
CIRCLE
  8
1
 62
7
  6
CONTINUOUS
 10
152.441402
 20
457.869891
 40
0.500000
  0
CIRCLE
  8
1
 62
7
  6
CONTINUOUS
 10
152.441402
 20
461.869891
 40
0.500000
  0
CIRCLE
  8
1
 62
7
  6
CONTINUOUS
 10
152.441402
 20
465.869891
 40
0.500000
  0
LINE
  8
1
 62
7
  6
CONTINUOUS
 10
149.441402
 20
475.369891
 11
149.441402
 21
443.369891
  0
LINE
  8
1
 62
7
  6
CONTINUOUS
 10
149.441402
 20
443.369891
 11
155.441402
 21
443.369891
  0
LINE
  8
1
 62
7
  6
CONTINUOUS
 10
155.441402
 20
443.369891
 11
155.441402
 21
475.369891
  0
LINE
  8
1
 62
7
  6
CONTINUOUS
 10
155.441402
 20
475.369891
 11
149.441402
 21
475.369891
  0
LINE
  8
1
 62
7
  6
CONTINUOUS
 10
149.441402
 20
474.993372
 11
155.448945
 21
474.993372
  0
LINE
  8
1
 62
7
  6
CONTINUOUS
 10
149.441402
 20
443.769891
 11
155.441402
 21
443.769891
  0
LINE
  8
1
 62
7
  6
CONTINUOUS
 10
173.424473
 20
474.993372
 11
179.441402
 21
474.993372
  0
LINE
  8
1
 62
7
  6
CONTINUOUS
 10
203.424473
 20
443.769891
 11
209.441402
 21
443.769891
  0
LINE
  8
1
 62
7
  6
CONTINUOUS
 10
209.241402
 20
443.969891
 11
209.241402
 21
468.969891
  0
LINE
  8
1
 62
7
  6
CONTINUOUS
 10
203.641402
 20
443.969891
 11
209.241402
 21
443.969891
  0
LINE
  8
1
 62
7
  6
CONTINUOUS
 10
203.641402
 20
468.969891
 11
203.641402
 21
443.969891
  0
LINE
  8
1
 62
7
  6
CONTINUOUS
 10
209.048945
 20
474.589294
 11
209.048945
 21
469.569891
  0
LINE
  8
1
 62
7
  6
CONTINUOUS
 10
203.824473
 20
469.569891
 11
209.048945
 21
469.569891
  0
LINE
  8
1
 62
7
  6
CONTINUOUS
 10
203.824473
 20
474.589294
 11
203.824473
 21
469.569891
  0
LINE
  8
1
 62
7
  6
CONTINUOUS
 10
203.824473
 20
474.589294
 11
209.048945
 21
474.589294
  0
LINE
  8
1
 62
7
  6
CONTINUOUS
 10
205.934670
 20
469.369891
 11
205.658548
 21
469.569716
  0
LINE
  8
1
 62
7
  6
CONTINUOUS
 10
207.039156
 20
469.369891
 11
207.290176
 21
469.569891
  0
LINE
  8
1
 62
7
  6
CONTINUOUS
 10
205.934670
 20
469.369891
 11
207.039156
 21
469.369891
  0
LINE
  8
1
 62
7
  6
CONTINUOUS
 10
203.641402
 20
468.969891
 11
209.241402
 21
468.969891
  0
LINE
  8
1
 62
7
  6
CONTINUOUS
 10
205.141402
 20
449.169891
 11
205.141402
 21
446.569891
  0
LINE
  8
1
 62
7
  6
CONTINUOUS
 10
205.141402
 20
446.569891
 11
207.741402
 21
446.569891
  0
LINE
  8
1
 62
7
  6
CONTINUOUS
 10
207.741402
 20
446.569891
 11
207.741402
 21
449.169891
  0
LINE
  8
1
 62
7
  6
CONTINUOUS
 10
207.741402
 20
449.169891
 11
205.141402
 21
449.169891
  0
LINE
  8
1
 62
7
  6
CONTINUOUS
 10
205.141402
 20
454.169891
 11
205.141402
 21
451.569891
  0
LINE
  8
1
 62
7
  6
CONTINUOUS
 10
205.141402
 20
451.569891
 11
207.741402
 21
451.569891
  0
LINE
  8
1
 62
7
  6
CONTINUOUS
 10
207.741402
 20
451.569891
 11
207.741402
 21
454.169891
  0
LINE
  8
1
 62
7
  6
CONTINUOUS
 10
207.741402
 20
454.169891
 11
205.141402
 21
454.169891
  0
CIRCLE
  8
1
 62
7
  6
CONTINUOUS
 10
206.441402
 20
457.869891
 40
0.500000
  0
CIRCLE
  8
1
 62
7
  6
CONTINUOUS
 10
206.441402
 20
461.869891
 40
0.500000
  0
CIRCLE
  8
1
 62
7
  6
CONTINUOUS
 10
206.441402
 20
465.869891
 40
0.500000
  0
LINE
  8
1
 62
7
  6
CONTINUOUS
 10
203.441402
 20
475.369891
 11
203.441402
 21
443.369891
  0
LINE
  8
1
 62
7
  6
CONTINUOUS
 10
203.441402
 20
443.369891
 11
209.441402
 21
443.369891
  0
LINE
  8
1
 62
7
  6
CONTINUOUS
 10
209.441402
 20
443.369891
 11
209.441402
 21
475.369891
  0
LINE
  8
1
 62
7
  6
CONTINUOUS
 10
209.441402
 20
475.369891
 11
203.441402
 21
475.369891
  0
LINE
  8
1
 62
7
  6
CONTINUOUS
 10
197.424473
 20
443.769891
 11
203.441402
 21
443.769891
  0
LINE
  8
1
 62
7
  6
CONTINUOUS
 10
203.241402
 20
443.969891
 11
203.241402
 21
468.969891
  0
LINE
  8
1
 62
7
  6
CONTINUOUS
 10
197.641402
 20
443.969891
 11
203.241402
 21
443.969891
  0
LINE
  8
1
 62
7
  6
CONTINUOUS
 10
197.641402
 20
468.969891
 11
197.641402
 21
443.969891
  0
LINE
  8
1
 62
7
  6
CONTINUOUS
 10
203.048945
 20
474.589294
 11
203.048945
 21
469.569891
  0
LINE
  8
1
 62
7
  6
CONTINUOUS
 10
197.824473
 20
469.569891
 11
203.048945
 21
469.569891
  0
LINE
  8
1
 62
7
  6
CONTINUOUS
 10
197.824473
 20
474.589294
 11
197.824473
 21
469.569891
  0
LINE
  8
1
 62
7
  6
CONTINUOUS
 10
197.824473
 20
474.589294
 11
203.048945
 21
474.589294
  0
LINE
  8
1
 62
7
  6
CONTINUOUS
 10
197.424473
 20
474.993372
 11
203.448945
 21
474.993372
  0
LINE
  8
1
 62
7
  6
CONTINUOUS
 10
199.934670
 20
469.369891
 11
199.658548
 21
469.569716
  0
LINE
  8
1
 62
7
  6
CONTINUOUS
 10
201.039156
 20
469.369891
 11
201.290176
 21
469.569891
  0
LINE
  8
1
 62
7
  6
CONTINUOUS
 10
199.934670
 20
469.369891
 11
201.039156
 21
469.369891
  0
LINE
  8
1
 62
7
  6
CONTINUOUS
 10
197.641402
 20
468.969891
 11
203.241402
 21
468.969891
  0
LINE
  8
1
 62
7
  6
CONTINUOUS
 10
199.141402
 20
449.169891
 11
199.141402
 21
446.569891
  0
LINE
  8
1
 62
7
  6
CONTINUOUS
 10
199.141402
 20
446.569891
 11
201.741402
 21
446.569891
  0
LINE
  8
1
 62
7
  6
CONTINUOUS
 10
201.741402
 20
446.569891
 11
201.741402
 21
449.169891
  0
LINE
  8
1
 62
7
  6
CONTINUOUS
 10
201.741402
 20
449.169891
 11
199.141402
 21
449.169891
  0
LINE
  8
1
 62
7
  6
CONTINUOUS
 10
199.141402
 20
454.169891
 11
199.141402
 21
451.569891
  0
LINE
  8
1
 62
7
  6
CONTINUOUS
 10
199.141402
 20
451.569891
 11
201.741402
 21
451.569891
  0
LINE
  8
1
 62
7
  6
CONTINUOUS
 10
201.741402
 20
451.569891
 11
201.741402
 21
454.169891
  0
LINE
  8
1
 62
7
  6
CONTINUOUS
 10
201.741402
 20
454.169891
 11
199.141402
 21
454.169891
  0
CIRCLE
  8
1
 62
7
  6
CONTINUOUS
 10
200.441402
 20
457.869891
 40
0.500000
  0
CIRCLE
  8
1
 62
7
  6
CONTINUOUS
 10
200.441402
 20
461.869891
 40
0.500000
  0
CIRCLE
  8
1
 62
7
  6
CONTINUOUS
 10
200.441402
 20
465.869891
 40
0.500000
  0
LINE
  8
1
 62
7
  6
CONTINUOUS
 10
197.441402
 20
475.369891
 11
197.441402
 21
443.369891
  0
LINE
  8
1
 62
7
  6
CONTINUOUS
 10
197.441402
 20
443.369891
 11
203.441402
 21
443.369891
  0
LINE
  8
1
 62
7
  6
CONTINUOUS
 10
203.441402
 20
443.369891
 11
203.441402
 21
475.369891
  0
LINE
  8
1
 62
7
  6
CONTINUOUS
 10
203.441402
 20
475.369891
 11
197.441402
 21
475.369891
  0
LINE
  8
1
 62
7
  6
CONTINUOUS
 10
191.424473
 20
443.769891
 11
197.441402
 21
443.769891
  0
LINE
  8
1
 62
7
  6
CONTINUOUS
 10
197.241402
 20
443.969891
 11
197.241402
 21
468.969891
  0
LINE
  8
1
 62
7
  6
CONTINUOUS
 10
191.641402
 20
443.969891
 11
197.241402
 21
443.969891
  0
LINE
  8
1
 62
7
  6
CONTINUOUS
 10
191.641402
 20
468.969891
 11
191.641402
 21
443.969891
  0
LINE
  8
1
 62
7
  6
CONTINUOUS
 10
197.048945
 20
474.589294
 11
197.048945
 21
469.569891
  0
LINE
  8
1
 62
7
  6
CONTINUOUS
 10
191.824473
 20
469.569891
 11
197.048945
 21
469.569891
  0
LINE
  8
1
 62
7
  6
CONTINUOUS
 10
191.824473
 20
474.589294
 11
191.824473
 21
469.569891
  0
LINE
  8
1
 62
7
  6
CONTINUOUS
 10
191.824473
 20
474.589294
 11
197.048945
 21
474.589294
  0
LINE
  8
1
 62
7
  6
CONTINUOUS
 10
191.424473
 20
474.993372
 11
197.448945
 21
474.993372
  0
LINE
  8
1
 62
7
  6
CONTINUOUS
 10
193.934670
 20
469.369891
 11
193.658548
 21
469.569716
  0
LINE
  8
1
 62
7
  6
CONTINUOUS
 10
195.039156
 20
469.369891
 11
195.290176
 21
469.569891
  0
LINE
  8
1
 62
7
  6
CONTINUOUS
 10
193.934670
 20
469.369891
 11
195.039156
 21
469.369891
  0
LINE
  8
1
 62
7
  6
CONTINUOUS
 10
191.641402
 20
468.969891
 11
197.241402
 21
468.969891
  0
LINE
  8
1
 62
7
  6
CONTINUOUS
 10
193.141402
 20
449.169891
 11
193.141402
 21
446.569891
  0
LINE
  8
1
 62
7
  6
CONTINUOUS
 10
193.141402
 20
446.569891
 11
195.741402
 21
446.569891
  0
LINE
  8
1
 62
7
  6
CONTINUOUS
 10
195.741402
 20
446.569891
 11
195.741402
 21
449.169891
  0
LINE
  8
1
 62
7
  6
CONTINUOUS
 10
195.741402
 20
449.169891
 11
193.141402
 21
449.169891
  0
LINE
  8
1
 62
7
  6
CONTINUOUS
 10
193.141402
 20
454.169891
 11
193.141402
 21
451.569891
  0
LINE
  8
1
 62
7
  6
CONTINUOUS
 10
193.141402
 20
451.569891
 11
195.741402
 21
451.569891
  0
LINE
  8
1
 62
7
  6
CONTINUOUS
 10
195.741402
 20
451.569891
 11
195.741402
 21
454.169891
  0
LINE
  8
1
 62
7
  6
CONTINUOUS
 10
195.741402
 20
454.169891
 11
193.141402
 21
454.169891
  0
CIRCLE
  8
1
 62
7
  6
CONTINUOUS
 10
194.441402
 20
457.869891
 40
0.500000
  0
CIRCLE
  8
1
 62
7
  6
CONTINUOUS
 10
194.441402
 20
461.869891
 40
0.500000
  0
CIRCLE
  8
1
 62
7
  6
CONTINUOUS
 10
194.441402
 20
465.869891
 40
0.500000
  0
LINE
  8
1
 62
7
  6
CONTINUOUS
 10
191.441402
 20
475.369891
 11
191.441402
 21
443.369891
  0
LINE
  8
1
 62
7
  6
CONTINUOUS
 10
191.441402
 20
443.369891
 11
197.441402
 21
443.369891
  0
LINE
  8
1
 62
7
  6
CONTINUOUS
 10
197.441402
 20
443.369891
 11
197.441402
 21
475.369891
  0
LINE
  8
1
 62
7
  6
CONTINUOUS
 10
197.441402
 20
475.369891
 11
191.441402
 21
475.369891
  0
LINE
  8
1
 62
7
  6
CONTINUOUS
 10
185.424473
 20
443.769891
 11
191.441402
 21
443.769891
  0
LINE
  8
1
 62
7
  6
CONTINUOUS
 10
191.241402
 20
443.969891
 11
191.241402
 21
468.969891
  0
LINE
  8
1
 62
7
  6
CONTINUOUS
 10
185.641402
 20
443.969891
 11
191.241402
 21
443.969891
  0
LINE
  8
1
 62
7
  6
CONTINUOUS
 10
185.641402
 20
468.969891
 11
185.641402
 21
443.969891
  0
LINE
  8
1
 62
7
  6
CONTINUOUS
 10
191.048945
 20
474.589294
 11
191.048945
 21
469.569891
  0
LINE
  8
1
 62
7
  6
CONTINUOUS
 10
185.824473
 20
469.569891
 11
191.048945
 21
469.569891
  0
LINE
  8
1
 62
7
  6
CONTINUOUS
 10
185.824473
 20
474.589294
 11
185.824473
 21
469.569891
  0
LINE
  8
1
 62
7
  6
CONTINUOUS
 10
185.824473
 20
474.589294
 11
191.048945
 21
474.589294
  0
LINE
  8
1
 62
7
  6
CONTINUOUS
 10
185.424473
 20
474.993372
 11
191.448945
 21
474.993372
  0
LINE
  8
1
 62
7
  6
CONTINUOUS
 10
187.934670
 20
469.369891
 11
187.658548
 21
469.569716
  0
LINE
  8
1
 62
7
  6
CONTINUOUS
 10
189.039156
 20
469.369891
 11
189.290176
 21
469.569891
  0
LINE
  8
1
 62
7
  6
CONTINUOUS
 10
187.934670
 20
469.369891
 11
189.039156
 21
469.369891
  0
LINE
  8
1
 62
7
  6
CONTINUOUS
 10
185.641402
 20
468.969891
 11
191.241402
 21
468.969891
  0
LINE
  8
1
 62
7
  6
CONTINUOUS
 10
187.141402
 20
449.169891
 11
187.141402
 21
446.569891
  0
LINE
  8
1
 62
7
  6
CONTINUOUS
 10
187.141402
 20
446.569891
 11
189.741402
 21
446.569891
  0
LINE
  8
1
 62
7
  6
CONTINUOUS
 10
189.741402
 20
446.569891
 11
189.741402
 21
449.169891
  0
LINE
  8
1
 62
7
  6
CONTINUOUS
 10
189.741402
 20
449.169891
 11
187.141402
 21
449.169891
  0
LINE
  8
1
 62
7
  6
CONTINUOUS
 10
187.141402
 20
454.169891
 11
187.141402
 21
451.569891
  0
LINE
  8
1
 62
7
  6
CONTINUOUS
 10
187.141402
 20
451.569891
 11
189.741402
 21
451.569891
  0
LINE
  8
1
 62
7
  6
CONTINUOUS
 10
189.741402
 20
451.569891
 11
189.741402
 21
454.169891
  0
LINE
  8
1
 62
7
  6
CONTINUOUS
 10
189.741402
 20
454.169891
 11
187.141402
 21
454.169891
  0
CIRCLE
  8
1
 62
7
  6
CONTINUOUS
 10
188.441402
 20
457.869891
 40
0.500000
  0
CIRCLE
  8
1
 62
7
  6
CONTINUOUS
 10
188.441402
 20
461.869891
 40
0.500000
  0
CIRCLE
  8
1
 62
7
  6
CONTINUOUS
 10
188.441402
 20
465.869891
 40
0.500000
  0
LINE
  8
1
 62
7
  6
CONTINUOUS
 10
185.441402
 20
475.369891
 11
185.441402
 21
443.369891
  0
LINE
  8
1
 62
7
  6
CONTINUOUS
 10
185.441402
 20
443.369891
 11
191.441402
 21
443.369891
  0
LINE
  8
1
 62
7
  6
CONTINUOUS
 10
191.441402
 20
443.369891
 11
191.441402
 21
475.369891
  0
LINE
  8
1
 62
7
  6
CONTINUOUS
 10
191.441402
 20
475.369891
 11
185.441402
 21
475.369891
  0
LINE
  8
1
 62
7
  6
CONTINUOUS
 10
185.241402
 20
443.969891
 11
185.241402
 21
468.969891
  0
LINE
  8
1
 62
7
  6
CONTINUOUS
 10
179.641402
 20
443.969891
 11
185.241402
 21
443.969891
  0
LINE
  8
1
 62
7
  6
CONTINUOUS
 10
179.641402
 20
468.969891
 11
179.641402
 21
443.969891
  0
LINE
  8
1
 62
7
  6
CONTINUOUS
 10
185.048945
 20
474.589294
 11
185.048945
 21
469.569891
  0
LINE
  8
1
 62
7
  6
CONTINUOUS
 10
179.824473
 20
469.569891
 11
185.048945
 21
469.569891
  0
LINE
  8
1
 62
7
  6
CONTINUOUS
 10
179.824473
 20
474.589294
 11
179.824473
 21
469.569891
  0
LINE
  8
1
 62
7
  6
CONTINUOUS
 10
179.824473
 20
474.589294
 11
185.048945
 21
474.589294
  0
LINE
  8
1
 62
7
  6
CONTINUOUS
 10
181.934670
 20
469.369891
 11
181.658548
 21
469.569716
  0
LINE
  8
1
 62
7
  6
CONTINUOUS
 10
183.039156
 20
469.369891
 11
183.290176
 21
469.569891
  0
LINE
  8
1
 62
7
  6
CONTINUOUS
 10
181.934670
 20
469.369891
 11
183.039156
 21
469.369891
  0
LINE
  8
1
 62
7
  6
CONTINUOUS
 10
179.641402
 20
468.969891
 11
185.241402
 21
468.969891
  0
LINE
  8
1
 62
7
  6
CONTINUOUS
 10
181.141402
 20
449.169891
 11
181.141402
 21
446.569891
  0
LINE
  8
1
 62
7
  6
CONTINUOUS
 10
181.141402
 20
446.569891
 11
183.741402
 21
446.569891
  0
LINE
  8
1
 62
7
  6
CONTINUOUS
 10
183.741402
 20
446.569891
 11
183.741402
 21
449.169891
  0
LINE
  8
1
 62
7
  6
CONTINUOUS
 10
183.741402
 20
449.169891
 11
181.141402
 21
449.169891
  0
LINE
  8
1
 62
7
  6
CONTINUOUS
 10
181.141402
 20
454.169891
 11
181.141402
 21
451.569891
  0
LINE
  8
1
 62
7
  6
CONTINUOUS
 10
181.141402
 20
451.569891
 11
183.741402
 21
451.569891
  0
LINE
  8
1
 62
7
  6
CONTINUOUS
 10
183.741402
 20
451.569891
 11
183.741402
 21
454.169891
  0
LINE
  8
1
 62
7
  6
CONTINUOUS
 10
183.741402
 20
454.169891
 11
181.141402
 21
454.169891
  0
CIRCLE
  8
1
 62
7
  6
CONTINUOUS
 10
182.441402
 20
457.869891
 40
0.500000
  0
CIRCLE
  8
1
 62
7
  6
CONTINUOUS
 10
182.441402
 20
461.869891
 40
0.500000
  0
CIRCLE
  8
1
 62
7
  6
CONTINUOUS
 10
182.441402
 20
465.869891
 40
0.500000
  0
LINE
  8
1
 62
7
  6
CONTINUOUS
 10
179.441402
 20
475.369891
 11
179.441402
 21
443.369891
  0
LINE
  8
1
 62
7
  6
CONTINUOUS
 10
179.441402
 20
443.369891
 11
185.441402
 21
443.369891
  0
LINE
  8
1
 62
7
  6
CONTINUOUS
 10
185.441402
 20
443.369891
 11
185.441402
 21
475.369891
  0
LINE
  8
1
 62
7
  6
CONTINUOUS
 10
185.441402
 20
475.369891
 11
179.441402
 21
475.369891
  0
LINE
  8
1
 62
7
  6
CONTINUOUS
 10
179.441402
 20
474.993372
 11
185.448945
 21
474.993372
  0
LINE
  8
1
 62
7
  6
CONTINUOUS
 10
179.441402
 20
443.769891
 11
185.441402
 21
443.769891
  0
LINE
  8
1
 62
7
  6
CONTINUOUS
 10
203.424473
 20
474.993372
 11
209.441402
 21
474.993372
  0
LINE
  8
1
 62
7
  6
CONTINUOUS
 10
173.424473
 20
405.769891
 11
179.441402
 21
405.769891
  0
LINE
  8
1
 62
7
  6
CONTINUOUS
 10
179.241402
 20
405.969891
 11
179.241402
 21
430.969891
  0
LINE
  8
1
 62
7
  6
CONTINUOUS
 10
173.641402
 20
405.969891
 11
179.241402
 21
405.969891
  0
LINE
  8
1
 62
7
  6
CONTINUOUS
 10
173.641402
 20
430.969891
 11
173.641402
 21
405.969891
  0
LINE
  8
1
 62
7
  6
CONTINUOUS
 10
179.048945
 20
436.589294
 11
179.048945
 21
431.569891
  0
LINE
  8
1
 62
7
  6
CONTINUOUS
 10
173.824473
 20
431.569891
 11
179.048945
 21
431.569891
  0
LINE
  8
1
 62
7
  6
CONTINUOUS
 10
173.824473
 20
436.589294
 11
173.824473
 21
431.569891
  0
LINE
  8
1
 62
7
  6
CONTINUOUS
 10
173.824473
 20
436.589294
 11
179.048945
 21
436.589294
  0
LINE
  8
1
 62
7
  6
CONTINUOUS
 10
175.934670
 20
431.369891
 11
175.658548
 21
431.569716
  0
LINE
  8
1
 62
7
  6
CONTINUOUS
 10
177.039156
 20
431.369891
 11
177.290176
 21
431.569891
  0
LINE
  8
1
 62
7
  6
CONTINUOUS
 10
175.934670
 20
431.369891
 11
177.039156
 21
431.369891
  0
LINE
  8
1
 62
7
  6
CONTINUOUS
 10
173.641402
 20
430.969891
 11
179.241402
 21
430.969891
  0
LINE
  8
1
 62
7
  6
CONTINUOUS
 10
175.141402
 20
411.169891
 11
175.141402
 21
408.569891
  0
LINE
  8
1
 62
7
  6
CONTINUOUS
 10
175.141402
 20
408.569891
 11
177.741402
 21
408.569891
  0
LINE
  8
1
 62
7
  6
CONTINUOUS
 10
177.741402
 20
408.569891
 11
177.741402
 21
411.169891
  0
LINE
  8
1
 62
7
  6
CONTINUOUS
 10
177.741402
 20
411.169891
 11
175.141402
 21
411.169891
  0
LINE
  8
1
 62
7
  6
CONTINUOUS
 10
175.141402
 20
416.169891
 11
175.141402
 21
413.569891
  0
LINE
  8
1
 62
7
  6
CONTINUOUS
 10
175.141402
 20
413.569891
 11
177.741402
 21
413.569891
  0
LINE
  8
1
 62
7
  6
CONTINUOUS
 10
177.741402
 20
413.569891
 11
177.741402
 21
416.169891
  0
LINE
  8
1
 62
7
  6
CONTINUOUS
 10
177.741402
 20
416.169891
 11
175.141402
 21
416.169891
  0
CIRCLE
  8
1
 62
7
  6
CONTINUOUS
 10
176.441402
 20
419.869891
 40
0.500000
  0
CIRCLE
  8
1
 62
7
  6
CONTINUOUS
 10
176.441402
 20
423.869891
 40
0.500000
  0
CIRCLE
  8
1
 62
7
  6
CONTINUOUS
 10
176.441402
 20
427.869891
 40
0.500000
  0
LINE
  8
1
 62
7
  6
CONTINUOUS
 10
173.441402
 20
437.369891
 11
173.441402
 21
405.369891
  0
LINE
  8
1
 62
7
  6
CONTINUOUS
 10
173.441402
 20
405.369891
 11
179.441402
 21
405.369891
  0
LINE
  8
1
 62
7
  6
CONTINUOUS
 10
179.441402
 20
405.369891
 11
179.441402
 21
437.369891
  0
LINE
  8
1
 62
7
  6
CONTINUOUS
 10
179.441402
 20
437.369891
 11
173.441402
 21
437.369891
  0
LINE
  8
1
 62
7
  6
CONTINUOUS
 10
167.424473
 20
405.769891
 11
173.441402
 21
405.769891
  0
LINE
  8
1
 62
7
  6
CONTINUOUS
 10
173.241402
 20
405.969891
 11
173.241402
 21
430.969891
  0
LINE
  8
1
 62
7
  6
CONTINUOUS
 10
167.641402
 20
405.969891
 11
173.241402
 21
405.969891
  0
LINE
  8
1
 62
7
  6
CONTINUOUS
 10
167.641402
 20
430.969891
 11
167.641402
 21
405.969891
  0
LINE
  8
1
 62
7
  6
CONTINUOUS
 10
173.048945
 20
436.589294
 11
173.048945
 21
431.569891
  0
LINE
  8
1
 62
7
  6
CONTINUOUS
 10
167.824473
 20
431.569891
 11
173.048945
 21
431.569891
  0
LINE
  8
1
 62
7
  6
CONTINUOUS
 10
167.824473
 20
436.589294
 11
167.824473
 21
431.569891
  0
LINE
  8
1
 62
7
  6
CONTINUOUS
 10
167.824473
 20
436.589294
 11
173.048945
 21
436.589294
  0
LINE
  8
1
 62
7
  6
CONTINUOUS
 10
167.424473
 20
436.993372
 11
173.448945
 21
436.993372
  0
LINE
  8
1
 62
7
  6
CONTINUOUS
 10
169.934670
 20
431.369891
 11
169.658548
 21
431.569716
  0
LINE
  8
1
 62
7
  6
CONTINUOUS
 10
171.039156
 20
431.369891
 11
171.290176
 21
431.569891
  0
LINE
  8
1
 62
7
  6
CONTINUOUS
 10
169.934670
 20
431.369891
 11
171.039156
 21
431.369891
  0
LINE
  8
1
 62
7
  6
CONTINUOUS
 10
167.641402
 20
430.969891
 11
173.241402
 21
430.969891
  0
LINE
  8
1
 62
7
  6
CONTINUOUS
 10
169.141402
 20
411.169891
 11
169.141402
 21
408.569891
  0
LINE
  8
1
 62
7
  6
CONTINUOUS
 10
169.141402
 20
408.569891
 11
171.741402
 21
408.569891
  0
LINE
  8
1
 62
7
  6
CONTINUOUS
 10
171.741402
 20
408.569891
 11
171.741402
 21
411.169891
  0
LINE
  8
1
 62
7
  6
CONTINUOUS
 10
171.741402
 20
411.169891
 11
169.141402
 21
411.169891
  0
LINE
  8
1
 62
7
  6
CONTINUOUS
 10
169.141402
 20
416.169891
 11
169.141402
 21
413.569891
  0
LINE
  8
1
 62
7
  6
CONTINUOUS
 10
169.141402
 20
413.569891
 11
171.741402
 21
413.569891
  0
LINE
  8
1
 62
7
  6
CONTINUOUS
 10
171.741402
 20
413.569891
 11
171.741402
 21
416.169891
  0
LINE
  8
1
 62
7
  6
CONTINUOUS
 10
171.741402
 20
416.169891
 11
169.141402
 21
416.169891
  0
CIRCLE
  8
1
 62
7
  6
CONTINUOUS
 10
170.441402
 20
419.869891
 40
0.500000
  0
CIRCLE
  8
1
 62
7
  6
CONTINUOUS
 10
170.441402
 20
423.869891
 40
0.500000
  0
CIRCLE
  8
1
 62
7
  6
CONTINUOUS
 10
170.441402
 20
427.869891
 40
0.500000
  0
LINE
  8
1
 62
7
  6
CONTINUOUS
 10
167.441402
 20
437.369891
 11
167.441402
 21
405.369891
  0
LINE
  8
1
 62
7
  6
CONTINUOUS
 10
167.441402
 20
405.369891
 11
173.441402
 21
405.369891
  0
LINE
  8
1
 62
7
  6
CONTINUOUS
 10
173.441402
 20
405.369891
 11
173.441402
 21
437.369891
  0
LINE
  8
1
 62
7
  6
CONTINUOUS
 10
173.441402
 20
437.369891
 11
167.441402
 21
437.369891
  0
LINE
  8
1
 62
7
  6
CONTINUOUS
 10
161.424473
 20
405.769891
 11
167.441402
 21
405.769891
  0
LINE
  8
1
 62
7
  6
CONTINUOUS
 10
167.241402
 20
405.969891
 11
167.241402
 21
430.969891
  0
LINE
  8
1
 62
7
  6
CONTINUOUS
 10
161.641402
 20
405.969891
 11
167.241402
 21
405.969891
  0
LINE
  8
1
 62
7
  6
CONTINUOUS
 10
161.641402
 20
430.969891
 11
161.641402
 21
405.969891
  0
LINE
  8
1
 62
7
  6
CONTINUOUS
 10
167.048945
 20
436.589294
 11
167.048945
 21
431.569891
  0
LINE
  8
1
 62
7
  6
CONTINUOUS
 10
161.824473
 20
431.569891
 11
167.048945
 21
431.569891
  0
LINE
  8
1
 62
7
  6
CONTINUOUS
 10
161.824473
 20
436.589294
 11
161.824473
 21
431.569891
  0
LINE
  8
1
 62
7
  6
CONTINUOUS
 10
161.824473
 20
436.589294
 11
167.048945
 21
436.589294
  0
LINE
  8
1
 62
7
  6
CONTINUOUS
 10
161.424473
 20
436.993372
 11
167.448945
 21
436.993372
  0
LINE
  8
1
 62
7
  6
CONTINUOUS
 10
163.934670
 20
431.369891
 11
163.658548
 21
431.569716
  0
LINE
  8
1
 62
7
  6
CONTINUOUS
 10
165.039156
 20
431.369891
 11
165.290176
 21
431.569891
  0
LINE
  8
1
 62
7
  6
CONTINUOUS
 10
163.934670
 20
431.369891
 11
165.039156
 21
431.369891
  0
LINE
  8
1
 62
7
  6
CONTINUOUS
 10
161.641402
 20
430.969891
 11
167.241402
 21
430.969891
  0
LINE
  8
1
 62
7
  6
CONTINUOUS
 10
163.141402
 20
411.169891
 11
163.141402
 21
408.569891
  0
LINE
  8
1
 62
7
  6
CONTINUOUS
 10
163.141402
 20
408.569891
 11
165.741402
 21
408.569891
  0
LINE
  8
1
 62
7
  6
CONTINUOUS
 10
165.741402
 20
408.569891
 11
165.741402
 21
411.169891
  0
LINE
  8
1
 62
7
  6
CONTINUOUS
 10
165.741402
 20
411.169891
 11
163.141402
 21
411.169891
  0
LINE
  8
1
 62
7
  6
CONTINUOUS
 10
163.141402
 20
416.169891
 11
163.141402
 21
413.569891
  0
LINE
  8
1
 62
7
  6
CONTINUOUS
 10
163.141402
 20
413.569891
 11
165.741402
 21
413.569891
  0
LINE
  8
1
 62
7
  6
CONTINUOUS
 10
165.741402
 20
413.569891
 11
165.741402
 21
416.169891
  0
LINE
  8
1
 62
7
  6
CONTINUOUS
 10
165.741402
 20
416.169891
 11
163.141402
 21
416.169891
  0
CIRCLE
  8
1
 62
7
  6
CONTINUOUS
 10
164.441402
 20
419.869891
 40
0.500000
  0
CIRCLE
  8
1
 62
7
  6
CONTINUOUS
 10
164.441402
 20
423.869891
 40
0.500000
  0
CIRCLE
  8
1
 62
7
  6
CONTINUOUS
 10
164.441402
 20
427.869891
 40
0.500000
  0
LINE
  8
1
 62
7
  6
CONTINUOUS
 10
161.441402
 20
437.369891
 11
161.441402
 21
405.369891
  0
LINE
  8
1
 62
7
  6
CONTINUOUS
 10
161.441402
 20
405.369891
 11
167.441402
 21
405.369891
  0
LINE
  8
1
 62
7
  6
CONTINUOUS
 10
167.441402
 20
405.369891
 11
167.441402
 21
437.369891
  0
LINE
  8
1
 62
7
  6
CONTINUOUS
 10
167.441402
 20
437.369891
 11
161.441402
 21
437.369891
  0
LINE
  8
1
 62
7
  6
CONTINUOUS
 10
155.424473
 20
405.769891
 11
161.441402
 21
405.769891
  0
LINE
  8
1
 62
7
  6
CONTINUOUS
 10
161.241402
 20
405.969891
 11
161.241402
 21
430.969891
  0
LINE
  8
1
 62
7
  6
CONTINUOUS
 10
155.641402
 20
405.969891
 11
161.241402
 21
405.969891
  0
LINE
  8
1
 62
7
  6
CONTINUOUS
 10
155.641402
 20
430.969891
 11
155.641402
 21
405.969891
  0
LINE
  8
1
 62
7
  6
CONTINUOUS
 10
161.048945
 20
436.589294
 11
161.048945
 21
431.569891
  0
LINE
  8
1
 62
7
  6
CONTINUOUS
 10
155.824473
 20
431.569891
 11
161.048945
 21
431.569891
  0
LINE
  8
1
 62
7
  6
CONTINUOUS
 10
155.824473
 20
436.589294
 11
155.824473
 21
431.569891
  0
LINE
  8
1
 62
7
  6
CONTINUOUS
 10
155.824473
 20
436.589294
 11
161.048945
 21
436.589294
  0
LINE
  8
1
 62
7
  6
CONTINUOUS
 10
155.424473
 20
436.993372
 11
161.448945
 21
436.993372
  0
LINE
  8
1
 62
7
  6
CONTINUOUS
 10
157.934670
 20
431.369891
 11
157.658548
 21
431.569716
  0
LINE
  8
1
 62
7
  6
CONTINUOUS
 10
159.039156
 20
431.369891
 11
159.290176
 21
431.569891
  0
LINE
  8
1
 62
7
  6
CONTINUOUS
 10
157.934670
 20
431.369891
 11
159.039156
 21
431.369891
  0
LINE
  8
1
 62
7
  6
CONTINUOUS
 10
155.641402
 20
430.969891
 11
161.241402
 21
430.969891
  0
LINE
  8
1
 62
7
  6
CONTINUOUS
 10
157.141402
 20
411.169891
 11
157.141402
 21
408.569891
  0
LINE
  8
1
 62
7
  6
CONTINUOUS
 10
157.141402
 20
408.569891
 11
159.741402
 21
408.569891
  0
LINE
  8
1
 62
7
  6
CONTINUOUS
 10
159.741402
 20
408.569891
 11
159.741402
 21
411.169891
  0
LINE
  8
1
 62
7
  6
CONTINUOUS
 10
159.741402
 20
411.169891
 11
157.141402
 21
411.169891
  0
LINE
  8
1
 62
7
  6
CONTINUOUS
 10
157.141402
 20
416.169891
 11
157.141402
 21
413.569891
  0
LINE
  8
1
 62
7
  6
CONTINUOUS
 10
157.141402
 20
413.569891
 11
159.741402
 21
413.569891
  0
LINE
  8
1
 62
7
  6
CONTINUOUS
 10
159.741402
 20
413.569891
 11
159.741402
 21
416.169891
  0
LINE
  8
1
 62
7
  6
CONTINUOUS
 10
159.741402
 20
416.169891
 11
157.141402
 21
416.169891
  0
CIRCLE
  8
1
 62
7
  6
CONTINUOUS
 10
158.441402
 20
419.869891
 40
0.500000
  0
CIRCLE
  8
1
 62
7
  6
CONTINUOUS
 10
158.441402
 20
423.869891
 40
0.500000
  0
CIRCLE
  8
1
 62
7
  6
CONTINUOUS
 10
158.441402
 20
427.869891
 40
0.500000
  0
LINE
  8
1
 62
7
  6
CONTINUOUS
 10
155.441402
 20
437.369891
 11
155.441402
 21
405.369891
  0
LINE
  8
1
 62
7
  6
CONTINUOUS
 10
155.441402
 20
405.369891
 11
161.441402
 21
405.369891
  0
LINE
  8
1
 62
7
  6
CONTINUOUS
 10
161.441402
 20
405.369891
 11
161.441402
 21
437.369891
  0
LINE
  8
1
 62
7
  6
CONTINUOUS
 10
161.441402
 20
437.369891
 11
155.441402
 21
437.369891
  0
LINE
  8
1
 62
7
  6
CONTINUOUS
 10
155.241402
 20
405.969891
 11
155.241402
 21
430.969891
  0
LINE
  8
1
 62
7
  6
CONTINUOUS
 10
149.641402
 20
405.969891
 11
155.241402
 21
405.969891
  0
LINE
  8
1
 62
7
  6
CONTINUOUS
 10
149.641402
 20
430.969891
 11
149.641402
 21
405.969891
  0
LINE
  8
1
 62
7
  6
CONTINUOUS
 10
155.048945
 20
436.589294
 11
155.048945
 21
431.569891
  0
LINE
  8
1
 62
7
  6
CONTINUOUS
 10
149.824473
 20
431.569891
 11
155.048945
 21
431.569891
  0
LINE
  8
1
 62
7
  6
CONTINUOUS
 10
149.824473
 20
436.589294
 11
149.824473
 21
431.569891
  0
LINE
  8
1
 62
7
  6
CONTINUOUS
 10
149.824473
 20
436.589294
 11
155.048945
 21
436.589294
  0
LINE
  8
1
 62
7
  6
CONTINUOUS
 10
151.934670
 20
431.369891
 11
151.658548
 21
431.569716
  0
LINE
  8
1
 62
7
  6
CONTINUOUS
 10
153.039156
 20
431.369891
 11
153.290176
 21
431.569891
  0
LINE
  8
1
 62
7
  6
CONTINUOUS
 10
151.934670
 20
431.369891
 11
153.039156
 21
431.369891
  0
LINE
  8
1
 62
7
  6
CONTINUOUS
 10
149.641402
 20
430.969891
 11
155.241402
 21
430.969891
  0
LINE
  8
1
 62
7
  6
CONTINUOUS
 10
151.141402
 20
411.169891
 11
151.141402
 21
408.569891
  0
LINE
  8
1
 62
7
  6
CONTINUOUS
 10
151.141402
 20
408.569891
 11
153.741402
 21
408.569891
  0
LINE
  8
1
 62
7
  6
CONTINUOUS
 10
153.741402
 20
408.569891
 11
153.741402
 21
411.169891
  0
LINE
  8
1
 62
7
  6
CONTINUOUS
 10
153.741402
 20
411.169891
 11
151.141402
 21
411.169891
  0
LINE
  8
1
 62
7
  6
CONTINUOUS
 10
151.141402
 20
416.169891
 11
151.141402
 21
413.569891
  0
LINE
  8
1
 62
7
  6
CONTINUOUS
 10
151.141402
 20
413.569891
 11
153.741402
 21
413.569891
  0
LINE
  8
1
 62
7
  6
CONTINUOUS
 10
153.741402
 20
413.569891
 11
153.741402
 21
416.169891
  0
LINE
  8
1
 62
7
  6
CONTINUOUS
 10
153.741402
 20
416.169891
 11
151.141402
 21
416.169891
  0
CIRCLE
  8
1
 62
7
  6
CONTINUOUS
 10
152.441402
 20
419.869891
 40
0.500000
  0
CIRCLE
  8
1
 62
7
  6
CONTINUOUS
 10
152.441402
 20
423.869891
 40
0.500000
  0
CIRCLE
  8
1
 62
7
  6
CONTINUOUS
 10
152.441402
 20
427.869891
 40
0.500000
  0
LINE
  8
1
 62
7
  6
CONTINUOUS
 10
149.441402
 20
437.369891
 11
149.441402
 21
405.369891
  0
LINE
  8
1
 62
7
  6
CONTINUOUS
 10
149.441402
 20
405.369891
 11
155.441402
 21
405.369891
  0
LINE
  8
1
 62
7
  6
CONTINUOUS
 10
155.441402
 20
405.369891
 11
155.441402
 21
437.369891
  0
LINE
  8
1
 62
7
  6
CONTINUOUS
 10
155.441402
 20
437.369891
 11
149.441402
 21
437.369891
  0
LINE
  8
1
 62
7
  6
CONTINUOUS
 10
149.441402
 20
436.993372
 11
155.448945
 21
436.993372
  0
LINE
  8
1
 62
7
  6
CONTINUOUS
 10
149.441402
 20
405.769891
 11
155.441402
 21
405.769891
  0
LINE
  8
1
 62
7
  6
CONTINUOUS
 10
173.424473
 20
436.993372
 11
179.441402
 21
436.993372
  0
LINE
  8
1
 62
7
  6
CONTINUOUS
 10
203.424473
 20
405.769891
 11
209.441402
 21
405.769891
  0
LINE
  8
1
 62
7
  6
CONTINUOUS
 10
209.241402
 20
405.969891
 11
209.241402
 21
430.969891
  0
LINE
  8
1
 62
7
  6
CONTINUOUS
 10
203.641402
 20
405.969891
 11
209.241402
 21
405.969891
  0
LINE
  8
1
 62
7
  6
CONTINUOUS
 10
203.641402
 20
430.969891
 11
203.641402
 21
405.969891
  0
LINE
  8
1
 62
7
  6
CONTINUOUS
 10
209.048945
 20
436.589294
 11
209.048945
 21
431.569891
  0
LINE
  8
1
 62
7
  6
CONTINUOUS
 10
203.824473
 20
431.569891
 11
209.048945
 21
431.569891
  0
LINE
  8
1
 62
7
  6
CONTINUOUS
 10
203.824473
 20
436.589294
 11
203.824473
 21
431.569891
  0
LINE
  8
1
 62
7
  6
CONTINUOUS
 10
203.824473
 20
436.589294
 11
209.048945
 21
436.589294
  0
LINE
  8
1
 62
7
  6
CONTINUOUS
 10
205.934670
 20
431.369891
 11
205.658548
 21
431.569716
  0
LINE
  8
1
 62
7
  6
CONTINUOUS
 10
207.039156
 20
431.369891
 11
207.290176
 21
431.569891
  0
LINE
  8
1
 62
7
  6
CONTINUOUS
 10
205.934670
 20
431.369891
 11
207.039156
 21
431.369891
  0
LINE
  8
1
 62
7
  6
CONTINUOUS
 10
203.641402
 20
430.969891
 11
209.241402
 21
430.969891
  0
LINE
  8
1
 62
7
  6
CONTINUOUS
 10
205.141402
 20
411.169891
 11
205.141402
 21
408.569891
  0
LINE
  8
1
 62
7
  6
CONTINUOUS
 10
205.141402
 20
408.569891
 11
207.741402
 21
408.569891
  0
LINE
  8
1
 62
7
  6
CONTINUOUS
 10
207.741402
 20
408.569891
 11
207.741402
 21
411.169891
  0
LINE
  8
1
 62
7
  6
CONTINUOUS
 10
207.741402
 20
411.169891
 11
205.141402
 21
411.169891
  0
LINE
  8
1
 62
7
  6
CONTINUOUS
 10
205.141402
 20
416.169891
 11
205.141402
 21
413.569891
  0
LINE
  8
1
 62
7
  6
CONTINUOUS
 10
205.141402
 20
413.569891
 11
207.741402
 21
413.569891
  0
LINE
  8
1
 62
7
  6
CONTINUOUS
 10
207.741402
 20
413.569891
 11
207.741402
 21
416.169891
  0
LINE
  8
1
 62
7
  6
CONTINUOUS
 10
207.741402
 20
416.169891
 11
205.141402
 21
416.169891
  0
CIRCLE
  8
1
 62
7
  6
CONTINUOUS
 10
206.441402
 20
419.869891
 40
0.500000
  0
CIRCLE
  8
1
 62
7
  6
CONTINUOUS
 10
206.441402
 20
423.869891
 40
0.500000
  0
CIRCLE
  8
1
 62
7
  6
CONTINUOUS
 10
206.441402
 20
427.869891
 40
0.500000
  0
LINE
  8
1
 62
7
  6
CONTINUOUS
 10
203.441402
 20
437.369891
 11
203.441402
 21
405.369891
  0
LINE
  8
1
 62
7
  6
CONTINUOUS
 10
203.441402
 20
405.369891
 11
209.441402
 21
405.369891
  0
LINE
  8
1
 62
7
  6
CONTINUOUS
 10
209.441402
 20
405.369891
 11
209.441402
 21
437.369891
  0
LINE
  8
1
 62
7
  6
CONTINUOUS
 10
209.441402
 20
437.369891
 11
203.441402
 21
437.369891
  0
LINE
  8
1
 62
7
  6
CONTINUOUS
 10
197.424473
 20
405.769891
 11
203.441402
 21
405.769891
  0
LINE
  8
1
 62
7
  6
CONTINUOUS
 10
203.241402
 20
405.969891
 11
203.241402
 21
430.969891
  0
LINE
  8
1
 62
7
  6
CONTINUOUS
 10
197.641402
 20
405.969891
 11
203.241402
 21
405.969891
  0
LINE
  8
1
 62
7
  6
CONTINUOUS
 10
197.641402
 20
430.969891
 11
197.641402
 21
405.969891
  0
LINE
  8
1
 62
7
  6
CONTINUOUS
 10
203.048945
 20
436.589294
 11
203.048945
 21
431.569891
  0
LINE
  8
1
 62
7
  6
CONTINUOUS
 10
197.824473
 20
431.569891
 11
203.048945
 21
431.569891
  0
LINE
  8
1
 62
7
  6
CONTINUOUS
 10
197.824473
 20
436.589294
 11
197.824473
 21
431.569891
  0
LINE
  8
1
 62
7
  6
CONTINUOUS
 10
197.824473
 20
436.589294
 11
203.048945
 21
436.589294
  0
LINE
  8
1
 62
7
  6
CONTINUOUS
 10
197.424473
 20
436.993372
 11
203.448945
 21
436.993372
  0
LINE
  8
1
 62
7
  6
CONTINUOUS
 10
199.934670
 20
431.369891
 11
199.658548
 21
431.569716
  0
LINE
  8
1
 62
7
  6
CONTINUOUS
 10
201.039156
 20
431.369891
 11
201.290176
 21
431.569891
  0
LINE
  8
1
 62
7
  6
CONTINUOUS
 10
199.934670
 20
431.369891
 11
201.039156
 21
431.369891
  0
LINE
  8
1
 62
7
  6
CONTINUOUS
 10
197.641402
 20
430.969891
 11
203.241402
 21
430.969891
  0
LINE
  8
1
 62
7
  6
CONTINUOUS
 10
199.141402
 20
411.169891
 11
199.141402
 21
408.569891
  0
LINE
  8
1
 62
7
  6
CONTINUOUS
 10
199.141402
 20
408.569891
 11
201.741402
 21
408.569891
  0
LINE
  8
1
 62
7
  6
CONTINUOUS
 10
201.741402
 20
408.569891
 11
201.741402
 21
411.169891
  0
LINE
  8
1
 62
7
  6
CONTINUOUS
 10
201.741402
 20
411.169891
 11
199.141402
 21
411.169891
  0
LINE
  8
1
 62
7
  6
CONTINUOUS
 10
199.141402
 20
416.169891
 11
199.141402
 21
413.569891
  0
LINE
  8
1
 62
7
  6
CONTINUOUS
 10
199.141402
 20
413.569891
 11
201.741402
 21
413.569891
  0
LINE
  8
1
 62
7
  6
CONTINUOUS
 10
201.741402
 20
413.569891
 11
201.741402
 21
416.169891
  0
LINE
  8
1
 62
7
  6
CONTINUOUS
 10
201.741402
 20
416.169891
 11
199.141402
 21
416.169891
  0
CIRCLE
  8
1
 62
7
  6
CONTINUOUS
 10
200.441402
 20
419.869891
 40
0.500000
  0
CIRCLE
  8
1
 62
7
  6
CONTINUOUS
 10
200.441402
 20
423.869891
 40
0.500000
  0
CIRCLE
  8
1
 62
7
  6
CONTINUOUS
 10
200.441402
 20
427.869891
 40
0.500000
  0
LINE
  8
1
 62
7
  6
CONTINUOUS
 10
197.441402
 20
437.369891
 11
197.441402
 21
405.369891
  0
LINE
  8
1
 62
7
  6
CONTINUOUS
 10
197.441402
 20
405.369891
 11
203.441402
 21
405.369891
  0
LINE
  8
1
 62
7
  6
CONTINUOUS
 10
203.441402
 20
405.369891
 11
203.441402
 21
437.369891
  0
LINE
  8
1
 62
7
  6
CONTINUOUS
 10
203.441402
 20
437.369891
 11
197.441402
 21
437.369891
  0
LINE
  8
1
 62
7
  6
CONTINUOUS
 10
191.424473
 20
405.769891
 11
197.441402
 21
405.769891
  0
LINE
  8
1
 62
7
  6
CONTINUOUS
 10
197.241402
 20
405.969891
 11
197.241402
 21
430.969891
  0
LINE
  8
1
 62
7
  6
CONTINUOUS
 10
191.641402
 20
405.969891
 11
197.241402
 21
405.969891
  0
LINE
  8
1
 62
7
  6
CONTINUOUS
 10
191.641402
 20
430.969891
 11
191.641402
 21
405.969891
  0
LINE
  8
1
 62
7
  6
CONTINUOUS
 10
197.048945
 20
436.589294
 11
197.048945
 21
431.569891
  0
LINE
  8
1
 62
7
  6
CONTINUOUS
 10
191.824473
 20
431.569891
 11
197.048945
 21
431.569891
  0
LINE
  8
1
 62
7
  6
CONTINUOUS
 10
191.824473
 20
436.589294
 11
191.824473
 21
431.569891
  0
LINE
  8
1
 62
7
  6
CONTINUOUS
 10
191.824473
 20
436.589294
 11
197.048945
 21
436.589294
  0
LINE
  8
1
 62
7
  6
CONTINUOUS
 10
191.424473
 20
436.993372
 11
197.448945
 21
436.993372
  0
LINE
  8
1
 62
7
  6
CONTINUOUS
 10
193.934670
 20
431.369891
 11
193.658548
 21
431.569716
  0
LINE
  8
1
 62
7
  6
CONTINUOUS
 10
195.039156
 20
431.369891
 11
195.290176
 21
431.569891
  0
LINE
  8
1
 62
7
  6
CONTINUOUS
 10
193.934670
 20
431.369891
 11
195.039156
 21
431.369891
  0
LINE
  8
1
 62
7
  6
CONTINUOUS
 10
191.641402
 20
430.969891
 11
197.241402
 21
430.969891
  0
LINE
  8
1
 62
7
  6
CONTINUOUS
 10
193.141402
 20
411.169891
 11
193.141402
 21
408.569891
  0
LINE
  8
1
 62
7
  6
CONTINUOUS
 10
193.141402
 20
408.569891
 11
195.741402
 21
408.569891
  0
LINE
  8
1
 62
7
  6
CONTINUOUS
 10
195.741402
 20
408.569891
 11
195.741402
 21
411.169891
  0
LINE
  8
1
 62
7
  6
CONTINUOUS
 10
195.741402
 20
411.169891
 11
193.141402
 21
411.169891
  0
LINE
  8
1
 62
7
  6
CONTINUOUS
 10
193.141402
 20
416.169891
 11
193.141402
 21
413.569891
  0
LINE
  8
1
 62
7
  6
CONTINUOUS
 10
193.141402
 20
413.569891
 11
195.741402
 21
413.569891
  0
LINE
  8
1
 62
7
  6
CONTINUOUS
 10
195.741402
 20
413.569891
 11
195.741402
 21
416.169891
  0
LINE
  8
1
 62
7
  6
CONTINUOUS
 10
195.741402
 20
416.169891
 11
193.141402
 21
416.169891
  0
CIRCLE
  8
1
 62
7
  6
CONTINUOUS
 10
194.441402
 20
419.869891
 40
0.500000
  0
CIRCLE
  8
1
 62
7
  6
CONTINUOUS
 10
194.441402
 20
423.869891
 40
0.500000
  0
CIRCLE
  8
1
 62
7
  6
CONTINUOUS
 10
194.441402
 20
427.869891
 40
0.500000
  0
LINE
  8
1
 62
7
  6
CONTINUOUS
 10
191.441402
 20
437.369891
 11
191.441402
 21
405.369891
  0
LINE
  8
1
 62
7
  6
CONTINUOUS
 10
191.441402
 20
405.369891
 11
197.441402
 21
405.369891
  0
LINE
  8
1
 62
7
  6
CONTINUOUS
 10
197.441402
 20
405.369891
 11
197.441402
 21
437.369891
  0
LINE
  8
1
 62
7
  6
CONTINUOUS
 10
197.441402
 20
437.369891
 11
191.441402
 21
437.369891
  0
LINE
  8
1
 62
7
  6
CONTINUOUS
 10
185.424473
 20
405.769891
 11
191.441402
 21
405.769891
  0
LINE
  8
1
 62
7
  6
CONTINUOUS
 10
191.241402
 20
405.969891
 11
191.241402
 21
430.969891
  0
LINE
  8
1
 62
7
  6
CONTINUOUS
 10
185.641402
 20
405.969891
 11
191.241402
 21
405.969891
  0
LINE
  8
1
 62
7
  6
CONTINUOUS
 10
185.641402
 20
430.969891
 11
185.641402
 21
405.969891
  0
LINE
  8
1
 62
7
  6
CONTINUOUS
 10
191.048945
 20
436.589294
 11
191.048945
 21
431.569891
  0
LINE
  8
1
 62
7
  6
CONTINUOUS
 10
185.824473
 20
431.569891
 11
191.048945
 21
431.569891
  0
LINE
  8
1
 62
7
  6
CONTINUOUS
 10
185.824473
 20
436.589294
 11
185.824473
 21
431.569891
  0
LINE
  8
1
 62
7
  6
CONTINUOUS
 10
185.824473
 20
436.589294
 11
191.048945
 21
436.589294
  0
LINE
  8
1
 62
7
  6
CONTINUOUS
 10
185.424473
 20
436.993372
 11
191.448945
 21
436.993372
  0
LINE
  8
1
 62
7
  6
CONTINUOUS
 10
187.934670
 20
431.369891
 11
187.658548
 21
431.569716
  0
LINE
  8
1
 62
7
  6
CONTINUOUS
 10
189.039156
 20
431.369891
 11
189.290176
 21
431.569891
  0
LINE
  8
1
 62
7
  6
CONTINUOUS
 10
187.934670
 20
431.369891
 11
189.039156
 21
431.369891
  0
LINE
  8
1
 62
7
  6
CONTINUOUS
 10
185.641402
 20
430.969891
 11
191.241402
 21
430.969891
  0
LINE
  8
1
 62
7
  6
CONTINUOUS
 10
187.141402
 20
411.169891
 11
187.141402
 21
408.569891
  0
LINE
  8
1
 62
7
  6
CONTINUOUS
 10
187.141402
 20
408.569891
 11
189.741402
 21
408.569891
  0
LINE
  8
1
 62
7
  6
CONTINUOUS
 10
189.741402
 20
408.569891
 11
189.741402
 21
411.169891
  0
LINE
  8
1
 62
7
  6
CONTINUOUS
 10
189.741402
 20
411.169891
 11
187.141402
 21
411.169891
  0
LINE
  8
1
 62
7
  6
CONTINUOUS
 10
187.141402
 20
416.169891
 11
187.141402
 21
413.569891
  0
LINE
  8
1
 62
7
  6
CONTINUOUS
 10
187.141402
 20
413.569891
 11
189.741402
 21
413.569891
  0
LINE
  8
1
 62
7
  6
CONTINUOUS
 10
189.741402
 20
413.569891
 11
189.741402
 21
416.169891
  0
LINE
  8
1
 62
7
  6
CONTINUOUS
 10
189.741402
 20
416.169891
 11
187.141402
 21
416.169891
  0
CIRCLE
  8
1
 62
7
  6
CONTINUOUS
 10
188.441402
 20
419.869891
 40
0.500000
  0
CIRCLE
  8
1
 62
7
  6
CONTINUOUS
 10
188.441402
 20
423.869891
 40
0.500000
  0
CIRCLE
  8
1
 62
7
  6
CONTINUOUS
 10
188.441402
 20
427.869891
 40
0.500000
  0
LINE
  8
1
 62
7
  6
CONTINUOUS
 10
185.441402
 20
437.369891
 11
185.441402
 21
405.369891
  0
LINE
  8
1
 62
7
  6
CONTINUOUS
 10
185.441402
 20
405.369891
 11
191.441402
 21
405.369891
  0
LINE
  8
1
 62
7
  6
CONTINUOUS
 10
191.441402
 20
405.369891
 11
191.441402
 21
437.369891
  0
LINE
  8
1
 62
7
  6
CONTINUOUS
 10
191.441402
 20
437.369891
 11
185.441402
 21
437.369891
  0
LINE
  8
1
 62
7
  6
CONTINUOUS
 10
185.241402
 20
405.969891
 11
185.241402
 21
430.969891
  0
LINE
  8
1
 62
7
  6
CONTINUOUS
 10
179.641402
 20
405.969891
 11
185.241402
 21
405.969891
  0
LINE
  8
1
 62
7
  6
CONTINUOUS
 10
179.641402
 20
430.969891
 11
179.641402
 21
405.969891
  0
LINE
  8
1
 62
7
  6
CONTINUOUS
 10
185.048945
 20
436.589294
 11
185.048945
 21
431.569891
  0
LINE
  8
1
 62
7
  6
CONTINUOUS
 10
179.824473
 20
431.569891
 11
185.048945
 21
431.569891
  0
LINE
  8
1
 62
7
  6
CONTINUOUS
 10
179.824473
 20
436.589294
 11
179.824473
 21
431.569891
  0
LINE
  8
1
 62
7
  6
CONTINUOUS
 10
179.824473
 20
436.589294
 11
185.048945
 21
436.589294
  0
LINE
  8
1
 62
7
  6
CONTINUOUS
 10
181.934670
 20
431.369891
 11
181.658548
 21
431.569716
  0
LINE
  8
1
 62
7
  6
CONTINUOUS
 10
183.039156
 20
431.369891
 11
183.290176
 21
431.569891
  0
LINE
  8
1
 62
7
  6
CONTINUOUS
 10
181.934670
 20
431.369891
 11
183.039156
 21
431.369891
  0
LINE
  8
1
 62
7
  6
CONTINUOUS
 10
179.641402
 20
430.969891
 11
185.241402
 21
430.969891
  0
LINE
  8
1
 62
7
  6
CONTINUOUS
 10
181.141402
 20
411.169891
 11
181.141402
 21
408.569891
  0
LINE
  8
1
 62
7
  6
CONTINUOUS
 10
181.141402
 20
408.569891
 11
183.741402
 21
408.569891
  0
LINE
  8
1
 62
7
  6
CONTINUOUS
 10
183.741402
 20
408.569891
 11
183.741402
 21
411.169891
  0
LINE
  8
1
 62
7
  6
CONTINUOUS
 10
183.741402
 20
411.169891
 11
181.141402
 21
411.169891
  0
LINE
  8
1
 62
7
  6
CONTINUOUS
 10
181.141402
 20
416.169891
 11
181.141402
 21
413.569891
  0
LINE
  8
1
 62
7
  6
CONTINUOUS
 10
181.141402
 20
413.569891
 11
183.741402
 21
413.569891
  0
LINE
  8
1
 62
7
  6
CONTINUOUS
 10
183.741402
 20
413.569891
 11
183.741402
 21
416.169891
  0
LINE
  8
1
 62
7
  6
CONTINUOUS
 10
183.741402
 20
416.169891
 11
181.141402
 21
416.169891
  0
CIRCLE
  8
1
 62
7
  6
CONTINUOUS
 10
182.441402
 20
419.869891
 40
0.500000
  0
CIRCLE
  8
1
 62
7
  6
CONTINUOUS
 10
182.441402
 20
423.869891
 40
0.500000
  0
CIRCLE
  8
1
 62
7
  6
CONTINUOUS
 10
182.441402
 20
427.869891
 40
0.500000
  0
LINE
  8
1
 62
7
  6
CONTINUOUS
 10
179.441402
 20
437.369891
 11
179.441402
 21
405.369891
  0
LINE
  8
1
 62
7
  6
CONTINUOUS
 10
179.441402
 20
405.369891
 11
185.441402
 21
405.369891
  0
LINE
  8
1
 62
7
  6
CONTINUOUS
 10
185.441402
 20
405.369891
 11
185.441402
 21
437.369891
  0
LINE
  8
1
 62
7
  6
CONTINUOUS
 10
185.441402
 20
437.369891
 11
179.441402
 21
437.369891
  0
LINE
  8
1
 62
7
  6
CONTINUOUS
 10
179.441402
 20
436.993372
 11
185.448945
 21
436.993372
  0
LINE
  8
1
 62
7
  6
CONTINUOUS
 10
179.441402
 20
405.769891
 11
185.441402
 21
405.769891
  0
LINE
  8
1
 62
7
  6
CONTINUOUS
 10
203.424473
 20
436.993372
 11
209.441402
 21
436.993372
  0
LINE
  8
1
 62
7
  6
CONTINUOUS
 10
173.424473
 20
367.769891
 11
179.441402
 21
367.769891
  0
LINE
  8
1
 62
7
  6
CONTINUOUS
 10
179.241402
 20
367.969891
 11
179.241402
 21
392.969891
  0
LINE
  8
1
 62
7
  6
CONTINUOUS
 10
173.641402
 20
367.969891
 11
179.241402
 21
367.969891
  0
LINE
  8
1
 62
7
  6
CONTINUOUS
 10
173.641402
 20
392.969891
 11
173.641402
 21
367.969891
  0
LINE
  8
1
 62
7
  6
CONTINUOUS
 10
179.048945
 20
398.589294
 11
179.048945
 21
393.569891
  0
LINE
  8
1
 62
7
  6
CONTINUOUS
 10
173.824473
 20
393.569891
 11
179.048945
 21
393.569891
  0
LINE
  8
1
 62
7
  6
CONTINUOUS
 10
173.824473
 20
398.589294
 11
173.824473
 21
393.569891
  0
LINE
  8
1
 62
7
  6
CONTINUOUS
 10
173.824473
 20
398.589294
 11
179.048945
 21
398.589294
  0
LINE
  8
1
 62
7
  6
CONTINUOUS
 10
175.934670
 20
393.369891
 11
175.658548
 21
393.569716
  0
LINE
  8
1
 62
7
  6
CONTINUOUS
 10
177.039156
 20
393.369891
 11
177.290176
 21
393.569891
  0
LINE
  8
1
 62
7
  6
CONTINUOUS
 10
175.934670
 20
393.369891
 11
177.039156
 21
393.369891
  0
LINE
  8
1
 62
7
  6
CONTINUOUS
 10
173.641402
 20
392.969891
 11
179.241402
 21
392.969891
  0
LINE
  8
1
 62
7
  6
CONTINUOUS
 10
175.141402
 20
373.169891
 11
175.141402
 21
370.569891
  0
LINE
  8
1
 62
7
  6
CONTINUOUS
 10
175.141402
 20
370.569891
 11
177.741402
 21
370.569891
  0
LINE
  8
1
 62
7
  6
CONTINUOUS
 10
177.741402
 20
370.569891
 11
177.741402
 21
373.169891
  0
LINE
  8
1
 62
7
  6
CONTINUOUS
 10
177.741402
 20
373.169891
 11
175.141402
 21
373.169891
  0
LINE
  8
1
 62
7
  6
CONTINUOUS
 10
175.141402
 20
378.169891
 11
175.141402
 21
375.569891
  0
LINE
  8
1
 62
7
  6
CONTINUOUS
 10
175.141402
 20
375.569891
 11
177.741402
 21
375.569891
  0
LINE
  8
1
 62
7
  6
CONTINUOUS
 10
177.741402
 20
375.569891
 11
177.741402
 21
378.169891
  0
LINE
  8
1
 62
7
  6
CONTINUOUS
 10
177.741402
 20
378.169891
 11
175.141402
 21
378.169891
  0
CIRCLE
  8
1
 62
7
  6
CONTINUOUS
 10
176.441402
 20
381.869891
 40
0.500000
  0
CIRCLE
  8
1
 62
7
  6
CONTINUOUS
 10
176.441402
 20
385.869891
 40
0.500000
  0
CIRCLE
  8
1
 62
7
  6
CONTINUOUS
 10
176.441402
 20
389.869891
 40
0.500000
  0
LINE
  8
1
 62
7
  6
CONTINUOUS
 10
173.441402
 20
399.369891
 11
173.441402
 21
367.369891
  0
LINE
  8
1
 62
7
  6
CONTINUOUS
 10
173.441402
 20
367.369891
 11
179.441402
 21
367.369891
  0
LINE
  8
1
 62
7
  6
CONTINUOUS
 10
179.441402
 20
367.369891
 11
179.441402
 21
399.369891
  0
LINE
  8
1
 62
7
  6
CONTINUOUS
 10
179.441402
 20
399.369891
 11
173.441402
 21
399.369891
  0
LINE
  8
1
 62
7
  6
CONTINUOUS
 10
167.424473
 20
367.769891
 11
173.441402
 21
367.769891
  0
LINE
  8
1
 62
7
  6
CONTINUOUS
 10
173.241402
 20
367.969891
 11
173.241402
 21
392.969891
  0
LINE
  8
1
 62
7
  6
CONTINUOUS
 10
167.641402
 20
367.969891
 11
173.241402
 21
367.969891
  0
LINE
  8
1
 62
7
  6
CONTINUOUS
 10
167.641402
 20
392.969891
 11
167.641402
 21
367.969891
  0
LINE
  8
1
 62
7
  6
CONTINUOUS
 10
173.048945
 20
398.589294
 11
173.048945
 21
393.569891
  0
LINE
  8
1
 62
7
  6
CONTINUOUS
 10
167.824473
 20
393.569891
 11
173.048945
 21
393.569891
  0
LINE
  8
1
 62
7
  6
CONTINUOUS
 10
167.824473
 20
398.589294
 11
167.824473
 21
393.569891
  0
LINE
  8
1
 62
7
  6
CONTINUOUS
 10
167.824473
 20
398.589294
 11
173.048945
 21
398.589294
  0
LINE
  8
1
 62
7
  6
CONTINUOUS
 10
167.424473
 20
398.993372
 11
173.448945
 21
398.993372
  0
LINE
  8
1
 62
7
  6
CONTINUOUS
 10
169.934670
 20
393.369891
 11
169.658548
 21
393.569716
  0
LINE
  8
1
 62
7
  6
CONTINUOUS
 10
171.039156
 20
393.369891
 11
171.290176
 21
393.569891
  0
LINE
  8
1
 62
7
  6
CONTINUOUS
 10
169.934670
 20
393.369891
 11
171.039156
 21
393.369891
  0
LINE
  8
1
 62
7
  6
CONTINUOUS
 10
167.641402
 20
392.969891
 11
173.241402
 21
392.969891
  0
LINE
  8
1
 62
7
  6
CONTINUOUS
 10
169.141402
 20
373.169891
 11
169.141402
 21
370.569891
  0
LINE
  8
1
 62
7
  6
CONTINUOUS
 10
169.141402
 20
370.569891
 11
171.741402
 21
370.569891
  0
LINE
  8
1
 62
7
  6
CONTINUOUS
 10
171.741402
 20
370.569891
 11
171.741402
 21
373.169891
  0
LINE
  8
1
 62
7
  6
CONTINUOUS
 10
171.741402
 20
373.169891
 11
169.141402
 21
373.169891
  0
LINE
  8
1
 62
7
  6
CONTINUOUS
 10
169.141402
 20
378.169891
 11
169.141402
 21
375.569891
  0
LINE
  8
1
 62
7
  6
CONTINUOUS
 10
169.141402
 20
375.569891
 11
171.741402
 21
375.569891
  0
LINE
  8
1
 62
7
  6
CONTINUOUS
 10
171.741402
 20
375.569891
 11
171.741402
 21
378.169891
  0
LINE
  8
1
 62
7
  6
CONTINUOUS
 10
171.741402
 20
378.169891
 11
169.141402
 21
378.169891
  0
CIRCLE
  8
1
 62
7
  6
CONTINUOUS
 10
170.441402
 20
381.869891
 40
0.500000
  0
CIRCLE
  8
1
 62
7
  6
CONTINUOUS
 10
170.441402
 20
385.869891
 40
0.500000
  0
CIRCLE
  8
1
 62
7
  6
CONTINUOUS
 10
170.441402
 20
389.869891
 40
0.500000
  0
LINE
  8
1
 62
7
  6
CONTINUOUS
 10
167.441402
 20
399.369891
 11
167.441402
 21
367.369891
  0
LINE
  8
1
 62
7
  6
CONTINUOUS
 10
167.441402
 20
367.369891
 11
173.441402
 21
367.369891
  0
LINE
  8
1
 62
7
  6
CONTINUOUS
 10
173.441402
 20
367.369891
 11
173.441402
 21
399.369891
  0
LINE
  8
1
 62
7
  6
CONTINUOUS
 10
173.441402
 20
399.369891
 11
167.441402
 21
399.369891
  0
LINE
  8
1
 62
7
  6
CONTINUOUS
 10
161.424473
 20
367.769891
 11
167.441402
 21
367.769891
  0
LINE
  8
1
 62
7
  6
CONTINUOUS
 10
167.241402
 20
367.969891
 11
167.241402
 21
392.969891
  0
LINE
  8
1
 62
7
  6
CONTINUOUS
 10
161.641402
 20
367.969891
 11
167.241402
 21
367.969891
  0
LINE
  8
1
 62
7
  6
CONTINUOUS
 10
161.641402
 20
392.969891
 11
161.641402
 21
367.969891
  0
LINE
  8
1
 62
7
  6
CONTINUOUS
 10
167.048945
 20
398.589294
 11
167.048945
 21
393.569891
  0
LINE
  8
1
 62
7
  6
CONTINUOUS
 10
161.824473
 20
393.569891
 11
167.048945
 21
393.569891
  0
LINE
  8
1
 62
7
  6
CONTINUOUS
 10
161.824473
 20
398.589294
 11
161.824473
 21
393.569891
  0
LINE
  8
1
 62
7
  6
CONTINUOUS
 10
161.824473
 20
398.589294
 11
167.048945
 21
398.589294
  0
LINE
  8
1
 62
7
  6
CONTINUOUS
 10
161.424473
 20
398.993372
 11
167.448945
 21
398.993372
  0
LINE
  8
1
 62
7
  6
CONTINUOUS
 10
163.934670
 20
393.369891
 11
163.658548
 21
393.569716
  0
LINE
  8
1
 62
7
  6
CONTINUOUS
 10
165.039156
 20
393.369891
 11
165.290176
 21
393.569891
  0
LINE
  8
1
 62
7
  6
CONTINUOUS
 10
163.934670
 20
393.369891
 11
165.039156
 21
393.369891
  0
LINE
  8
1
 62
7
  6
CONTINUOUS
 10
161.641402
 20
392.969891
 11
167.241402
 21
392.969891
  0
LINE
  8
1
 62
7
  6
CONTINUOUS
 10
163.141402
 20
373.169891
 11
163.141402
 21
370.569891
  0
LINE
  8
1
 62
7
  6
CONTINUOUS
 10
163.141402
 20
370.569891
 11
165.741402
 21
370.569891
  0
LINE
  8
1
 62
7
  6
CONTINUOUS
 10
165.741402
 20
370.569891
 11
165.741402
 21
373.169891
  0
LINE
  8
1
 62
7
  6
CONTINUOUS
 10
165.741402
 20
373.169891
 11
163.141402
 21
373.169891
  0
LINE
  8
1
 62
7
  6
CONTINUOUS
 10
163.141402
 20
378.169891
 11
163.141402
 21
375.569891
  0
LINE
  8
1
 62
7
  6
CONTINUOUS
 10
163.141402
 20
375.569891
 11
165.741402
 21
375.569891
  0
LINE
  8
1
 62
7
  6
CONTINUOUS
 10
165.741402
 20
375.569891
 11
165.741402
 21
378.169891
  0
LINE
  8
1
 62
7
  6
CONTINUOUS
 10
165.741402
 20
378.169891
 11
163.141402
 21
378.169891
  0
CIRCLE
  8
1
 62
7
  6
CONTINUOUS
 10
164.441402
 20
381.869891
 40
0.500000
  0
CIRCLE
  8
1
 62
7
  6
CONTINUOUS
 10
164.441402
 20
385.869891
 40
0.500000
  0
CIRCLE
  8
1
 62
7
  6
CONTINUOUS
 10
164.441402
 20
389.869891
 40
0.500000
  0
LINE
  8
1
 62
7
  6
CONTINUOUS
 10
161.441402
 20
399.369891
 11
161.441402
 21
367.369891
  0
LINE
  8
1
 62
7
  6
CONTINUOUS
 10
161.441402
 20
367.369891
 11
167.441402
 21
367.369891
  0
LINE
  8
1
 62
7
  6
CONTINUOUS
 10
167.441402
 20
367.369891
 11
167.441402
 21
399.369891
  0
LINE
  8
1
 62
7
  6
CONTINUOUS
 10
167.441402
 20
399.369891
 11
161.441402
 21
399.369891
  0
LINE
  8
1
 62
7
  6
CONTINUOUS
 10
155.424473
 20
367.769891
 11
161.441402
 21
367.769891
  0
LINE
  8
1
 62
7
  6
CONTINUOUS
 10
161.241402
 20
367.969891
 11
161.241402
 21
392.969891
  0
LINE
  8
1
 62
7
  6
CONTINUOUS
 10
155.641402
 20
367.969891
 11
161.241402
 21
367.969891
  0
LINE
  8
1
 62
7
  6
CONTINUOUS
 10
155.641402
 20
392.969891
 11
155.641402
 21
367.969891
  0
LINE
  8
1
 62
7
  6
CONTINUOUS
 10
161.048945
 20
398.589294
 11
161.048945
 21
393.569891
  0
LINE
  8
1
 62
7
  6
CONTINUOUS
 10
155.824473
 20
393.569891
 11
161.048945
 21
393.569891
  0
LINE
  8
1
 62
7
  6
CONTINUOUS
 10
155.824473
 20
398.589294
 11
155.824473
 21
393.569891
  0
LINE
  8
1
 62
7
  6
CONTINUOUS
 10
155.824473
 20
398.589294
 11
161.048945
 21
398.589294
  0
LINE
  8
1
 62
7
  6
CONTINUOUS
 10
155.424473
 20
398.993372
 11
161.448945
 21
398.993372
  0
LINE
  8
1
 62
7
  6
CONTINUOUS
 10
157.934670
 20
393.369891
 11
157.658548
 21
393.569716
  0
LINE
  8
1
 62
7
  6
CONTINUOUS
 10
159.039156
 20
393.369891
 11
159.290176
 21
393.569891
  0
LINE
  8
1
 62
7
  6
CONTINUOUS
 10
157.934670
 20
393.369891
 11
159.039156
 21
393.369891
  0
LINE
  8
1
 62
7
  6
CONTINUOUS
 10
155.641402
 20
392.969891
 11
161.241402
 21
392.969891
  0
LINE
  8
1
 62
7
  6
CONTINUOUS
 10
157.141402
 20
373.169891
 11
157.141402
 21
370.569891
  0
LINE
  8
1
 62
7
  6
CONTINUOUS
 10
157.141402
 20
370.569891
 11
159.741402
 21
370.569891
  0
LINE
  8
1
 62
7
  6
CONTINUOUS
 10
159.741402
 20
370.569891
 11
159.741402
 21
373.169891
  0
LINE
  8
1
 62
7
  6
CONTINUOUS
 10
159.741402
 20
373.169891
 11
157.141402
 21
373.169891
  0
LINE
  8
1
 62
7
  6
CONTINUOUS
 10
157.141402
 20
378.169891
 11
157.141402
 21
375.569891
  0
LINE
  8
1
 62
7
  6
CONTINUOUS
 10
157.141402
 20
375.569891
 11
159.741402
 21
375.569891
  0
LINE
  8
1
 62
7
  6
CONTINUOUS
 10
159.741402
 20
375.569891
 11
159.741402
 21
378.169891
  0
LINE
  8
1
 62
7
  6
CONTINUOUS
 10
159.741402
 20
378.169891
 11
157.141402
 21
378.169891
  0
CIRCLE
  8
1
 62
7
  6
CONTINUOUS
 10
158.441402
 20
381.869891
 40
0.500000
  0
CIRCLE
  8
1
 62
7
  6
CONTINUOUS
 10
158.441402
 20
385.869891
 40
0.500000
  0
CIRCLE
  8
1
 62
7
  6
CONTINUOUS
 10
158.441402
 20
389.869891
 40
0.500000
  0
LINE
  8
1
 62
7
  6
CONTINUOUS
 10
155.441402
 20
399.369891
 11
155.441402
 21
367.369891
  0
LINE
  8
1
 62
7
  6
CONTINUOUS
 10
155.441402
 20
367.369891
 11
161.441402
 21
367.369891
  0
LINE
  8
1
 62
7
  6
CONTINUOUS
 10
161.441402
 20
367.369891
 11
161.441402
 21
399.369891
  0
LINE
  8
1
 62
7
  6
CONTINUOUS
 10
161.441402
 20
399.369891
 11
155.441402
 21
399.369891
  0
LINE
  8
1
 62
7
  6
CONTINUOUS
 10
155.241402
 20
367.969891
 11
155.241402
 21
392.969891
  0
LINE
  8
1
 62
7
  6
CONTINUOUS
 10
149.641402
 20
367.969891
 11
155.241402
 21
367.969891
  0
LINE
  8
1
 62
7
  6
CONTINUOUS
 10
149.641402
 20
392.969891
 11
149.641402
 21
367.969891
  0
LINE
  8
1
 62
7
  6
CONTINUOUS
 10
155.048945
 20
398.589294
 11
155.048945
 21
393.569891
  0
LINE
  8
1
 62
7
  6
CONTINUOUS
 10
149.824473
 20
393.569891
 11
155.048945
 21
393.569891
  0
LINE
  8
1
 62
7
  6
CONTINUOUS
 10
149.824473
 20
398.589294
 11
149.824473
 21
393.569891
  0
LINE
  8
1
 62
7
  6
CONTINUOUS
 10
149.824473
 20
398.589294
 11
155.048945
 21
398.589294
  0
LINE
  8
1
 62
7
  6
CONTINUOUS
 10
151.934670
 20
393.369891
 11
151.658548
 21
393.569716
  0
LINE
  8
1
 62
7
  6
CONTINUOUS
 10
153.039156
 20
393.369891
 11
153.290176
 21
393.569891
  0
LINE
  8
1
 62
7
  6
CONTINUOUS
 10
151.934670
 20
393.369891
 11
153.039156
 21
393.369891
  0
LINE
  8
1
 62
7
  6
CONTINUOUS
 10
149.641402
 20
392.969891
 11
155.241402
 21
392.969891
  0
LINE
  8
1
 62
7
  6
CONTINUOUS
 10
151.141402
 20
373.169891
 11
151.141402
 21
370.569891
  0
LINE
  8
1
 62
7
  6
CONTINUOUS
 10
151.141402
 20
370.569891
 11
153.741402
 21
370.569891
  0
LINE
  8
1
 62
7
  6
CONTINUOUS
 10
153.741402
 20
370.569891
 11
153.741402
 21
373.169891
  0
LINE
  8
1
 62
7
  6
CONTINUOUS
 10
153.741402
 20
373.169891
 11
151.141402
 21
373.169891
  0
LINE
  8
1
 62
7
  6
CONTINUOUS
 10
151.141402
 20
378.169891
 11
151.141402
 21
375.569891
  0
LINE
  8
1
 62
7
  6
CONTINUOUS
 10
151.141402
 20
375.569891
 11
153.741402
 21
375.569891
  0
LINE
  8
1
 62
7
  6
CONTINUOUS
 10
153.741402
 20
375.569891
 11
153.741402
 21
378.169891
  0
LINE
  8
1
 62
7
  6
CONTINUOUS
 10
153.741402
 20
378.169891
 11
151.141402
 21
378.169891
  0
CIRCLE
  8
1
 62
7
  6
CONTINUOUS
 10
152.441402
 20
381.869891
 40
0.500000
  0
CIRCLE
  8
1
 62
7
  6
CONTINUOUS
 10
152.441402
 20
385.869891
 40
0.500000
  0
CIRCLE
  8
1
 62
7
  6
CONTINUOUS
 10
152.441402
 20
389.869891
 40
0.500000
  0
LINE
  8
1
 62
7
  6
CONTINUOUS
 10
149.441402
 20
399.369891
 11
149.441402
 21
367.369891
  0
LINE
  8
1
 62
7
  6
CONTINUOUS
 10
149.441402
 20
367.369891
 11
155.441402
 21
367.369891
  0
LINE
  8
1
 62
7
  6
CONTINUOUS
 10
155.441402
 20
367.369891
 11
155.441402
 21
399.369891
  0
LINE
  8
1
 62
7
  6
CONTINUOUS
 10
155.441402
 20
399.369891
 11
149.441402
 21
399.369891
  0
LINE
  8
1
 62
7
  6
CONTINUOUS
 10
149.441402
 20
398.993372
 11
155.448945
 21
398.993372
  0
LINE
  8
1
 62
7
  6
CONTINUOUS
 10
149.441402
 20
367.769891
 11
155.441402
 21
367.769891
  0
LINE
  8
1
 62
7
  6
CONTINUOUS
 10
173.424473
 20
398.993372
 11
179.441402
 21
398.993372
  0
LINE
  8
1
 62
7
  6
CONTINUOUS
 10
203.424473
 20
367.769891
 11
209.441402
 21
367.769891
  0
LINE
  8
1
 62
7
  6
CONTINUOUS
 10
209.241402
 20
367.969891
 11
209.241402
 21
392.969891
  0
LINE
  8
1
 62
7
  6
CONTINUOUS
 10
203.641402
 20
367.969891
 11
209.241402
 21
367.969891
  0
LINE
  8
1
 62
7
  6
CONTINUOUS
 10
203.641402
 20
392.969891
 11
203.641402
 21
367.969891
  0
LINE
  8
1
 62
7
  6
CONTINUOUS
 10
209.048945
 20
398.589294
 11
209.048945
 21
393.569891
  0
LINE
  8
1
 62
7
  6
CONTINUOUS
 10
203.824473
 20
393.569891
 11
209.048945
 21
393.569891
  0
LINE
  8
1
 62
7
  6
CONTINUOUS
 10
203.824473
 20
398.589294
 11
203.824473
 21
393.569891
  0
LINE
  8
1
 62
7
  6
CONTINUOUS
 10
203.824473
 20
398.589294
 11
209.048945
 21
398.589294
  0
LINE
  8
1
 62
7
  6
CONTINUOUS
 10
205.934670
 20
393.369891
 11
205.658548
 21
393.569716
  0
LINE
  8
1
 62
7
  6
CONTINUOUS
 10
207.039156
 20
393.369891
 11
207.290176
 21
393.569891
  0
LINE
  8
1
 62
7
  6
CONTINUOUS
 10
205.934670
 20
393.369891
 11
207.039156
 21
393.369891
  0
LINE
  8
1
 62
7
  6
CONTINUOUS
 10
203.641402
 20
392.969891
 11
209.241402
 21
392.969891
  0
LINE
  8
1
 62
7
  6
CONTINUOUS
 10
205.141402
 20
373.169891
 11
205.141402
 21
370.569891
  0
LINE
  8
1
 62
7
  6
CONTINUOUS
 10
205.141402
 20
370.569891
 11
207.741402
 21
370.569891
  0
LINE
  8
1
 62
7
  6
CONTINUOUS
 10
207.741402
 20
370.569891
 11
207.741402
 21
373.169891
  0
LINE
  8
1
 62
7
  6
CONTINUOUS
 10
207.741402
 20
373.169891
 11
205.141402
 21
373.169891
  0
LINE
  8
1
 62
7
  6
CONTINUOUS
 10
205.141402
 20
378.169891
 11
205.141402
 21
375.569891
  0
LINE
  8
1
 62
7
  6
CONTINUOUS
 10
205.141402
 20
375.569891
 11
207.741402
 21
375.569891
  0
LINE
  8
1
 62
7
  6
CONTINUOUS
 10
207.741402
 20
375.569891
 11
207.741402
 21
378.169891
  0
LINE
  8
1
 62
7
  6
CONTINUOUS
 10
207.741402
 20
378.169891
 11
205.141402
 21
378.169891
  0
CIRCLE
  8
1
 62
7
  6
CONTINUOUS
 10
206.441402
 20
381.869891
 40
0.500000
  0
CIRCLE
  8
1
 62
7
  6
CONTINUOUS
 10
206.441402
 20
385.869891
 40
0.500000
  0
CIRCLE
  8
1
 62
7
  6
CONTINUOUS
 10
206.441402
 20
389.869891
 40
0.500000
  0
LINE
  8
1
 62
7
  6
CONTINUOUS
 10
203.441402
 20
399.369891
 11
203.441402
 21
367.369891
  0
LINE
  8
1
 62
7
  6
CONTINUOUS
 10
203.441402
 20
367.369891
 11
209.441402
 21
367.369891
  0
LINE
  8
1
 62
7
  6
CONTINUOUS
 10
209.441402
 20
367.369891
 11
209.441402
 21
399.369891
  0
LINE
  8
1
 62
7
  6
CONTINUOUS
 10
209.441402
 20
399.369891
 11
203.441402
 21
399.369891
  0
LINE
  8
1
 62
7
  6
CONTINUOUS
 10
197.424473
 20
367.769891
 11
203.441402
 21
367.769891
  0
LINE
  8
1
 62
7
  6
CONTINUOUS
 10
203.241402
 20
367.969891
 11
203.241402
 21
392.969891
  0
LINE
  8
1
 62
7
  6
CONTINUOUS
 10
197.641402
 20
367.969891
 11
203.241402
 21
367.969891
  0
LINE
  8
1
 62
7
  6
CONTINUOUS
 10
197.641402
 20
392.969891
 11
197.641402
 21
367.969891
  0
LINE
  8
1
 62
7
  6
CONTINUOUS
 10
203.048945
 20
398.589294
 11
203.048945
 21
393.569891
  0
LINE
  8
1
 62
7
  6
CONTINUOUS
 10
197.824473
 20
393.569891
 11
203.048945
 21
393.569891
  0
LINE
  8
1
 62
7
  6
CONTINUOUS
 10
197.824473
 20
398.589294
 11
197.824473
 21
393.569891
  0
LINE
  8
1
 62
7
  6
CONTINUOUS
 10
197.824473
 20
398.589294
 11
203.048945
 21
398.589294
  0
LINE
  8
1
 62
7
  6
CONTINUOUS
 10
197.424473
 20
398.993372
 11
203.448945
 21
398.993372
  0
LINE
  8
1
 62
7
  6
CONTINUOUS
 10
199.934670
 20
393.369891
 11
199.658548
 21
393.569716
  0
LINE
  8
1
 62
7
  6
CONTINUOUS
 10
201.039156
 20
393.369891
 11
201.290176
 21
393.569891
  0
LINE
  8
1
 62
7
  6
CONTINUOUS
 10
199.934670
 20
393.369891
 11
201.039156
 21
393.369891
  0
LINE
  8
1
 62
7
  6
CONTINUOUS
 10
197.641402
 20
392.969891
 11
203.241402
 21
392.969891
  0
LINE
  8
1
 62
7
  6
CONTINUOUS
 10
199.141402
 20
373.169891
 11
199.141402
 21
370.569891
  0
LINE
  8
1
 62
7
  6
CONTINUOUS
 10
199.141402
 20
370.569891
 11
201.741402
 21
370.569891
  0
LINE
  8
1
 62
7
  6
CONTINUOUS
 10
201.741402
 20
370.569891
 11
201.741402
 21
373.169891
  0
LINE
  8
1
 62
7
  6
CONTINUOUS
 10
201.741402
 20
373.169891
 11
199.141402
 21
373.169891
  0
LINE
  8
1
 62
7
  6
CONTINUOUS
 10
199.141402
 20
378.169891
 11
199.141402
 21
375.569891
  0
LINE
  8
1
 62
7
  6
CONTINUOUS
 10
199.141402
 20
375.569891
 11
201.741402
 21
375.569891
  0
LINE
  8
1
 62
7
  6
CONTINUOUS
 10
201.741402
 20
375.569891
 11
201.741402
 21
378.169891
  0
LINE
  8
1
 62
7
  6
CONTINUOUS
 10
201.741402
 20
378.169891
 11
199.141402
 21
378.169891
  0
CIRCLE
  8
1
 62
7
  6
CONTINUOUS
 10
200.441402
 20
381.869891
 40
0.500000
  0
CIRCLE
  8
1
 62
7
  6
CONTINUOUS
 10
200.441402
 20
385.869891
 40
0.500000
  0
CIRCLE
  8
1
 62
7
  6
CONTINUOUS
 10
200.441402
 20
389.869891
 40
0.500000
  0
LINE
  8
1
 62
7
  6
CONTINUOUS
 10
197.441402
 20
399.369891
 11
197.441402
 21
367.369891
  0
LINE
  8
1
 62
7
  6
CONTINUOUS
 10
197.441402
 20
367.369891
 11
203.441402
 21
367.369891
  0
LINE
  8
1
 62
7
  6
CONTINUOUS
 10
203.441402
 20
367.369891
 11
203.441402
 21
399.369891
  0
LINE
  8
1
 62
7
  6
CONTINUOUS
 10
203.441402
 20
399.369891
 11
197.441402
 21
399.369891
  0
LINE
  8
1
 62
7
  6
CONTINUOUS
 10
191.424473
 20
367.769891
 11
197.441402
 21
367.769891
  0
LINE
  8
1
 62
7
  6
CONTINUOUS
 10
197.241402
 20
367.969891
 11
197.241402
 21
392.969891
  0
LINE
  8
1
 62
7
  6
CONTINUOUS
 10
191.641402
 20
367.969891
 11
197.241402
 21
367.969891
  0
LINE
  8
1
 62
7
  6
CONTINUOUS
 10
191.641402
 20
392.969891
 11
191.641402
 21
367.969891
  0
LINE
  8
1
 62
7
  6
CONTINUOUS
 10
197.048945
 20
398.589294
 11
197.048945
 21
393.569891
  0
LINE
  8
1
 62
7
  6
CONTINUOUS
 10
191.824473
 20
393.569891
 11
197.048945
 21
393.569891
  0
LINE
  8
1
 62
7
  6
CONTINUOUS
 10
191.824473
 20
398.589294
 11
191.824473
 21
393.569891
  0
LINE
  8
1
 62
7
  6
CONTINUOUS
 10
191.824473
 20
398.589294
 11
197.048945
 21
398.589294
  0
LINE
  8
1
 62
7
  6
CONTINUOUS
 10
191.424473
 20
398.993372
 11
197.448945
 21
398.993372
  0
LINE
  8
1
 62
7
  6
CONTINUOUS
 10
193.934670
 20
393.369891
 11
193.658548
 21
393.569716
  0
LINE
  8
1
 62
7
  6
CONTINUOUS
 10
195.039156
 20
393.369891
 11
195.290176
 21
393.569891
  0
LINE
  8
1
 62
7
  6
CONTINUOUS
 10
193.934670
 20
393.369891
 11
195.039156
 21
393.369891
  0
LINE
  8
1
 62
7
  6
CONTINUOUS
 10
191.641402
 20
392.969891
 11
197.241402
 21
392.969891
  0
LINE
  8
1
 62
7
  6
CONTINUOUS
 10
193.141402
 20
373.169891
 11
193.141402
 21
370.569891
  0
LINE
  8
1
 62
7
  6
CONTINUOUS
 10
193.141402
 20
370.569891
 11
195.741402
 21
370.569891
  0
LINE
  8
1
 62
7
  6
CONTINUOUS
 10
195.741402
 20
370.569891
 11
195.741402
 21
373.169891
  0
LINE
  8
1
 62
7
  6
CONTINUOUS
 10
195.741402
 20
373.169891
 11
193.141402
 21
373.169891
  0
LINE
  8
1
 62
7
  6
CONTINUOUS
 10
193.141402
 20
378.169891
 11
193.141402
 21
375.569891
  0
LINE
  8
1
 62
7
  6
CONTINUOUS
 10
193.141402
 20
375.569891
 11
195.741402
 21
375.569891
  0
LINE
  8
1
 62
7
  6
CONTINUOUS
 10
195.741402
 20
375.569891
 11
195.741402
 21
378.169891
  0
LINE
  8
1
 62
7
  6
CONTINUOUS
 10
195.741402
 20
378.169891
 11
193.141402
 21
378.169891
  0
CIRCLE
  8
1
 62
7
  6
CONTINUOUS
 10
194.441402
 20
381.869891
 40
0.500000
  0
CIRCLE
  8
1
 62
7
  6
CONTINUOUS
 10
194.441402
 20
385.869891
 40
0.500000
  0
CIRCLE
  8
1
 62
7
  6
CONTINUOUS
 10
194.441402
 20
389.869891
 40
0.500000
  0
LINE
  8
1
 62
7
  6
CONTINUOUS
 10
191.441402
 20
399.369891
 11
191.441402
 21
367.369891
  0
LINE
  8
1
 62
7
  6
CONTINUOUS
 10
191.441402
 20
367.369891
 11
197.441402
 21
367.369891
  0
LINE
  8
1
 62
7
  6
CONTINUOUS
 10
197.441402
 20
367.369891
 11
197.441402
 21
399.369891
  0
LINE
  8
1
 62
7
  6
CONTINUOUS
 10
197.441402
 20
399.369891
 11
191.441402
 21
399.369891
  0
LINE
  8
1
 62
7
  6
CONTINUOUS
 10
185.424473
 20
367.769891
 11
191.441402
 21
367.769891
  0
LINE
  8
1
 62
7
  6
CONTINUOUS
 10
191.241402
 20
367.969891
 11
191.241402
 21
392.969891
  0
LINE
  8
1
 62
7
  6
CONTINUOUS
 10
185.641402
 20
367.969891
 11
191.241402
 21
367.969891
  0
LINE
  8
1
 62
7
  6
CONTINUOUS
 10
185.641402
 20
392.969891
 11
185.641402
 21
367.969891
  0
LINE
  8
1
 62
7
  6
CONTINUOUS
 10
191.048945
 20
398.589294
 11
191.048945
 21
393.569891
  0
LINE
  8
1
 62
7
  6
CONTINUOUS
 10
185.824473
 20
393.569891
 11
191.048945
 21
393.569891
  0
LINE
  8
1
 62
7
  6
CONTINUOUS
 10
185.824473
 20
398.589294
 11
185.824473
 21
393.569891
  0
LINE
  8
1
 62
7
  6
CONTINUOUS
 10
185.824473
 20
398.589294
 11
191.048945
 21
398.589294
  0
LINE
  8
1
 62
7
  6
CONTINUOUS
 10
185.424473
 20
398.993372
 11
191.448945
 21
398.993372
  0
LINE
  8
1
 62
7
  6
CONTINUOUS
 10
187.934670
 20
393.369891
 11
187.658548
 21
393.569716
  0
LINE
  8
1
 62
7
  6
CONTINUOUS
 10
189.039156
 20
393.369891
 11
189.290176
 21
393.569891
  0
LINE
  8
1
 62
7
  6
CONTINUOUS
 10
187.934670
 20
393.369891
 11
189.039156
 21
393.369891
  0
LINE
  8
1
 62
7
  6
CONTINUOUS
 10
185.641402
 20
392.969891
 11
191.241402
 21
392.969891
  0
LINE
  8
1
 62
7
  6
CONTINUOUS
 10
187.141402
 20
373.169891
 11
187.141402
 21
370.569891
  0
LINE
  8
1
 62
7
  6
CONTINUOUS
 10
187.141402
 20
370.569891
 11
189.741402
 21
370.569891
  0
LINE
  8
1
 62
7
  6
CONTINUOUS
 10
189.741402
 20
370.569891
 11
189.741402
 21
373.169891
  0
LINE
  8
1
 62
7
  6
CONTINUOUS
 10
189.741402
 20
373.169891
 11
187.141402
 21
373.169891
  0
LINE
  8
1
 62
7
  6
CONTINUOUS
 10
187.141402
 20
378.169891
 11
187.141402
 21
375.569891
  0
LINE
  8
1
 62
7
  6
CONTINUOUS
 10
187.141402
 20
375.569891
 11
189.741402
 21
375.569891
  0
LINE
  8
1
 62
7
  6
CONTINUOUS
 10
189.741402
 20
375.569891
 11
189.741402
 21
378.169891
  0
LINE
  8
1
 62
7
  6
CONTINUOUS
 10
189.741402
 20
378.169891
 11
187.141402
 21
378.169891
  0
CIRCLE
  8
1
 62
7
  6
CONTINUOUS
 10
188.441402
 20
381.869891
 40
0.500000
  0
CIRCLE
  8
1
 62
7
  6
CONTINUOUS
 10
188.441402
 20
385.869891
 40
0.500000
  0
CIRCLE
  8
1
 62
7
  6
CONTINUOUS
 10
188.441402
 20
389.869891
 40
0.500000
  0
LINE
  8
1
 62
7
  6
CONTINUOUS
 10
185.441402
 20
399.369891
 11
185.441402
 21
367.369891
  0
LINE
  8
1
 62
7
  6
CONTINUOUS
 10
185.441402
 20
367.369891
 11
191.441402
 21
367.369891
  0
LINE
  8
1
 62
7
  6
CONTINUOUS
 10
191.441402
 20
367.369891
 11
191.441402
 21
399.369891
  0
LINE
  8
1
 62
7
  6
CONTINUOUS
 10
191.441402
 20
399.369891
 11
185.441402
 21
399.369891
  0
LINE
  8
1
 62
7
  6
CONTINUOUS
 10
185.241402
 20
367.969891
 11
185.241402
 21
392.969891
  0
LINE
  8
1
 62
7
  6
CONTINUOUS
 10
179.641402
 20
367.969891
 11
185.241402
 21
367.969891
  0
LINE
  8
1
 62
7
  6
CONTINUOUS
 10
179.641402
 20
392.969891
 11
179.641402
 21
367.969891
  0
LINE
  8
1
 62
7
  6
CONTINUOUS
 10
185.048945
 20
398.589294
 11
185.048945
 21
393.569891
  0
LINE
  8
1
 62
7
  6
CONTINUOUS
 10
179.824473
 20
393.569891
 11
185.048945
 21
393.569891
  0
LINE
  8
1
 62
7
  6
CONTINUOUS
 10
179.824473
 20
398.589294
 11
179.824473
 21
393.569891
  0
LINE
  8
1
 62
7
  6
CONTINUOUS
 10
179.824473
 20
398.589294
 11
185.048945
 21
398.589294
  0
LINE
  8
1
 62
7
  6
CONTINUOUS
 10
181.934670
 20
393.369891
 11
181.658548
 21
393.569716
  0
LINE
  8
1
 62
7
  6
CONTINUOUS
 10
183.039156
 20
393.369891
 11
183.290176
 21
393.569891
  0
LINE
  8
1
 62
7
  6
CONTINUOUS
 10
181.934670
 20
393.369891
 11
183.039156
 21
393.369891
  0
LINE
  8
1
 62
7
  6
CONTINUOUS
 10
179.641402
 20
392.969891
 11
185.241402
 21
392.969891
  0
LINE
  8
1
 62
7
  6
CONTINUOUS
 10
181.141402
 20
373.169891
 11
181.141402
 21
370.569891
  0
LINE
  8
1
 62
7
  6
CONTINUOUS
 10
181.141402
 20
370.569891
 11
183.741402
 21
370.569891
  0
LINE
  8
1
 62
7
  6
CONTINUOUS
 10
183.741402
 20
370.569891
 11
183.741402
 21
373.169891
  0
LINE
  8
1
 62
7
  6
CONTINUOUS
 10
183.741402
 20
373.169891
 11
181.141402
 21
373.169891
  0
LINE
  8
1
 62
7
  6
CONTINUOUS
 10
181.141402
 20
378.169891
 11
181.141402
 21
375.569891
  0
LINE
  8
1
 62
7
  6
CONTINUOUS
 10
181.141402
 20
375.569891
 11
183.741402
 21
375.569891
  0
LINE
  8
1
 62
7
  6
CONTINUOUS
 10
183.741402
 20
375.569891
 11
183.741402
 21
378.169891
  0
LINE
  8
1
 62
7
  6
CONTINUOUS
 10
183.741402
 20
378.169891
 11
181.141402
 21
378.169891
  0
CIRCLE
  8
1
 62
7
  6
CONTINUOUS
 10
182.441402
 20
381.869891
 40
0.500000
  0
CIRCLE
  8
1
 62
7
  6
CONTINUOUS
 10
182.441402
 20
385.869891
 40
0.500000
  0
CIRCLE
  8
1
 62
7
  6
CONTINUOUS
 10
182.441402
 20
389.869891
 40
0.500000
  0
LINE
  8
1
 62
7
  6
CONTINUOUS
 10
179.441402
 20
399.369891
 11
179.441402
 21
367.369891
  0
LINE
  8
1
 62
7
  6
CONTINUOUS
 10
179.441402
 20
367.369891
 11
185.441402
 21
367.369891
  0
LINE
  8
1
 62
7
  6
CONTINUOUS
 10
185.441402
 20
367.369891
 11
185.441402
 21
399.369891
  0
LINE
  8
1
 62
7
  6
CONTINUOUS
 10
185.441402
 20
399.369891
 11
179.441402
 21
399.369891
  0
LINE
  8
1
 62
7
  6
CONTINUOUS
 10
179.441402
 20
398.993372
 11
185.448945
 21
398.993372
  0
LINE
  8
1
 62
7
  6
CONTINUOUS
 10
179.441402
 20
367.769891
 11
185.441402
 21
367.769891
  0
LINE
  8
1
 62
7
  6
CONTINUOUS
 10
203.424473
 20
398.993372
 11
209.441402
 21
398.993372
  0
LINE
  8
1
 62
7
  6
CONTINUOUS
 10
209.241402
 20
330.093372
 11
149.441402
 21
330.093372
  0
LINE
  8
1
 62
7
  6
CONTINUOUS
 10
149.441402
 20
360.993372
 11
209.241402
 21
360.993372
  0
LINE
  8
1
 62
7
  6
CONTINUOUS
 10
209.241402
 20
360.993372
 11
209.241402
 21
330.093372
  0
LINE
  8
1
 62
7
  6
CONTINUOUS
 10
149.441402
 20
330.093372
 11
149.441402
 21
360.993372
  0
LINE
  8
1
 62
7
  6
CONTINUOUS
 10
209.241402
 20
292.093372
 11
149.441402
 21
292.093372
  0
LINE
  8
1
 62
7
  6
CONTINUOUS
 10
149.441402
 20
322.993372
 11
209.241402
 21
322.993372
  0
LINE
  8
1
 62
7
  6
CONTINUOUS
 10
209.241402
 20
322.993372
 11
209.241402
 21
292.093372
  0
LINE
  8
1
 62
7
  6
CONTINUOUS
 10
149.441402
 20
292.093372
 11
149.441402
 21
322.993372
  0
LINE
  8
1
 62
7
  6
CONTINUOUS
 10
173.424473
 20
329.769891
 11
179.441402
 21
329.769891
  0
LINE
  8
1
 62
7
  6
CONTINUOUS
 10
179.241402
 20
329.969891
 11
179.241402
 21
354.969891
  0
LINE
  8
1
 62
7
  6
CONTINUOUS
 10
173.641402
 20
329.969891
 11
179.241402
 21
329.969891
  0
LINE
  8
1
 62
7
  6
CONTINUOUS
 10
173.641402
 20
354.969891
 11
173.641402
 21
329.969891
  0
LINE
  8
1
 62
7
  6
CONTINUOUS
 10
179.048945
 20
360.589294
 11
179.048945
 21
355.569891
  0
LINE
  8
1
 62
7
  6
CONTINUOUS
 10
173.824473
 20
355.569891
 11
179.048945
 21
355.569891
  0
LINE
  8
1
 62
7
  6
CONTINUOUS
 10
173.824473
 20
360.589294
 11
173.824473
 21
355.569891
  0
LINE
  8
1
 62
7
  6
CONTINUOUS
 10
173.824473
 20
360.589294
 11
179.048945
 21
360.589294
  0
LINE
  8
1
 62
7
  6
CONTINUOUS
 10
175.934670
 20
355.369891
 11
175.658548
 21
355.569716
  0
LINE
  8
1
 62
7
  6
CONTINUOUS
 10
177.039156
 20
355.369891
 11
177.290176
 21
355.569891
  0
LINE
  8
1
 62
7
  6
CONTINUOUS
 10
175.934670
 20
355.369891
 11
177.039156
 21
355.369891
  0
LINE
  8
1
 62
7
  6
CONTINUOUS
 10
173.641402
 20
354.969891
 11
179.241402
 21
354.969891
  0
LINE
  8
1
 62
7
  6
CONTINUOUS
 10
175.141402
 20
335.169891
 11
175.141402
 21
332.569891
  0
LINE
  8
1
 62
7
  6
CONTINUOUS
 10
175.141402
 20
332.569891
 11
177.741402
 21
332.569891
  0
LINE
  8
1
 62
7
  6
CONTINUOUS
 10
177.741402
 20
332.569891
 11
177.741402
 21
335.169891
  0
LINE
  8
1
 62
7
  6
CONTINUOUS
 10
177.741402
 20
335.169891
 11
175.141402
 21
335.169891
  0
LINE
  8
1
 62
7
  6
CONTINUOUS
 10
175.141402
 20
340.169891
 11
175.141402
 21
337.569891
  0
LINE
  8
1
 62
7
  6
CONTINUOUS
 10
175.141402
 20
337.569891
 11
177.741402
 21
337.569891
  0
LINE
  8
1
 62
7
  6
CONTINUOUS
 10
177.741402
 20
337.569891
 11
177.741402
 21
340.169891
  0
LINE
  8
1
 62
7
  6
CONTINUOUS
 10
177.741402
 20
340.169891
 11
175.141402
 21
340.169891
  0
CIRCLE
  8
1
 62
7
  6
CONTINUOUS
 10
176.441402
 20
343.869891
 40
0.500000
  0
CIRCLE
  8
1
 62
7
  6
CONTINUOUS
 10
176.441402
 20
347.869891
 40
0.500000
  0
CIRCLE
  8
1
 62
7
  6
CONTINUOUS
 10
176.441402
 20
351.869891
 40
0.500000
  0
LINE
  8
1
 62
7
  6
CONTINUOUS
 10
173.441402
 20
361.369891
 11
173.441402
 21
329.369891
  0
LINE
  8
1
 62
7
  6
CONTINUOUS
 10
173.441402
 20
329.369891
 11
179.441402
 21
329.369891
  0
LINE
  8
1
 62
7
  6
CONTINUOUS
 10
179.441402
 20
329.369891
 11
179.441402
 21
361.369891
  0
LINE
  8
1
 62
7
  6
CONTINUOUS
 10
179.441402
 20
361.369891
 11
173.441402
 21
361.369891
  0
LINE
  8
1
 62
7
  6
CONTINUOUS
 10
167.424473
 20
329.769891
 11
173.441402
 21
329.769891
  0
LINE
  8
1
 62
7
  6
CONTINUOUS
 10
173.241402
 20
329.969891
 11
173.241402
 21
354.969891
  0
LINE
  8
1
 62
7
  6
CONTINUOUS
 10
167.641402
 20
329.969891
 11
173.241402
 21
329.969891
  0
LINE
  8
1
 62
7
  6
CONTINUOUS
 10
167.641402
 20
354.969891
 11
167.641402
 21
329.969891
  0
LINE
  8
1
 62
7
  6
CONTINUOUS
 10
173.048945
 20
360.589294
 11
173.048945
 21
355.569891
  0
LINE
  8
1
 62
7
  6
CONTINUOUS
 10
167.824473
 20
355.569891
 11
173.048945
 21
355.569891
  0
LINE
  8
1
 62
7
  6
CONTINUOUS
 10
167.824473
 20
360.589294
 11
167.824473
 21
355.569891
  0
LINE
  8
1
 62
7
  6
CONTINUOUS
 10
167.824473
 20
360.589294
 11
173.048945
 21
360.589294
  0
LINE
  8
1
 62
7
  6
CONTINUOUS
 10
167.424473
 20
360.993372
 11
173.448945
 21
360.993372
  0
LINE
  8
1
 62
7
  6
CONTINUOUS
 10
169.934670
 20
355.369891
 11
169.658548
 21
355.569716
  0
LINE
  8
1
 62
7
  6
CONTINUOUS
 10
171.039156
 20
355.369891
 11
171.290176
 21
355.569891
  0
LINE
  8
1
 62
7
  6
CONTINUOUS
 10
169.934670
 20
355.369891
 11
171.039156
 21
355.369891
  0
LINE
  8
1
 62
7
  6
CONTINUOUS
 10
167.641402
 20
354.969891
 11
173.241402
 21
354.969891
  0
LINE
  8
1
 62
7
  6
CONTINUOUS
 10
169.141402
 20
335.169891
 11
169.141402
 21
332.569891
  0
LINE
  8
1
 62
7
  6
CONTINUOUS
 10
169.141402
 20
332.569891
 11
171.741402
 21
332.569891
  0
LINE
  8
1
 62
7
  6
CONTINUOUS
 10
171.741402
 20
332.569891
 11
171.741402
 21
335.169891
  0
LINE
  8
1
 62
7
  6
CONTINUOUS
 10
171.741402
 20
335.169891
 11
169.141402
 21
335.169891
  0
LINE
  8
1
 62
7
  6
CONTINUOUS
 10
169.141402
 20
340.169891
 11
169.141402
 21
337.569891
  0
LINE
  8
1
 62
7
  6
CONTINUOUS
 10
169.141402
 20
337.569891
 11
171.741402
 21
337.569891
  0
LINE
  8
1
 62
7
  6
CONTINUOUS
 10
171.741402
 20
337.569891
 11
171.741402
 21
340.169891
  0
LINE
  8
1
 62
7
  6
CONTINUOUS
 10
171.741402
 20
340.169891
 11
169.141402
 21
340.169891
  0
CIRCLE
  8
1
 62
7
  6
CONTINUOUS
 10
170.441402
 20
343.869891
 40
0.500000
  0
CIRCLE
  8
1
 62
7
  6
CONTINUOUS
 10
170.441402
 20
347.869891
 40
0.500000
  0
CIRCLE
  8
1
 62
7
  6
CONTINUOUS
 10
170.441402
 20
351.869891
 40
0.500000
  0
LINE
  8
1
 62
7
  6
CONTINUOUS
 10
167.441402
 20
361.369891
 11
167.441402
 21
329.369891
  0
LINE
  8
1
 62
7
  6
CONTINUOUS
 10
167.441402
 20
329.369891
 11
173.441402
 21
329.369891
  0
LINE
  8
1
 62
7
  6
CONTINUOUS
 10
173.441402
 20
329.369891
 11
173.441402
 21
361.369891
  0
LINE
  8
1
 62
7
  6
CONTINUOUS
 10
173.441402
 20
361.369891
 11
167.441402
 21
361.369891
  0
LINE
  8
1
 62
7
  6
CONTINUOUS
 10
161.424473
 20
329.769891
 11
167.441402
 21
329.769891
  0
LINE
  8
1
 62
7
  6
CONTINUOUS
 10
167.241402
 20
329.969891
 11
167.241402
 21
354.969891
  0
LINE
  8
1
 62
7
  6
CONTINUOUS
 10
161.641402
 20
329.969891
 11
167.241402
 21
329.969891
  0
LINE
  8
1
 62
7
  6
CONTINUOUS
 10
161.641402
 20
354.969891
 11
161.641402
 21
329.969891
  0
LINE
  8
1
 62
7
  6
CONTINUOUS
 10
167.048945
 20
360.589294
 11
167.048945
 21
355.569891
  0
LINE
  8
1
 62
7
  6
CONTINUOUS
 10
161.824473
 20
355.569891
 11
167.048945
 21
355.569891
  0
LINE
  8
1
 62
7
  6
CONTINUOUS
 10
161.824473
 20
360.589294
 11
161.824473
 21
355.569891
  0
LINE
  8
1
 62
7
  6
CONTINUOUS
 10
161.824473
 20
360.589294
 11
167.048945
 21
360.589294
  0
LINE
  8
1
 62
7
  6
CONTINUOUS
 10
161.424473
 20
360.993372
 11
167.448945
 21
360.993372
  0
LINE
  8
1
 62
7
  6
CONTINUOUS
 10
163.934670
 20
355.369891
 11
163.658548
 21
355.569716
  0
LINE
  8
1
 62
7
  6
CONTINUOUS
 10
165.039156
 20
355.369891
 11
165.290176
 21
355.569891
  0
LINE
  8
1
 62
7
  6
CONTINUOUS
 10
163.934670
 20
355.369891
 11
165.039156
 21
355.369891
  0
LINE
  8
1
 62
7
  6
CONTINUOUS
 10
161.641402
 20
354.969891
 11
167.241402
 21
354.969891
  0
LINE
  8
1
 62
7
  6
CONTINUOUS
 10
163.141402
 20
335.169891
 11
163.141402
 21
332.569891
  0
LINE
  8
1
 62
7
  6
CONTINUOUS
 10
163.141402
 20
332.569891
 11
165.741402
 21
332.569891
  0
LINE
  8
1
 62
7
  6
CONTINUOUS
 10
165.741402
 20
332.569891
 11
165.741402
 21
335.169891
  0
LINE
  8
1
 62
7
  6
CONTINUOUS
 10
165.741402
 20
335.169891
 11
163.141402
 21
335.169891
  0
LINE
  8
1
 62
7
  6
CONTINUOUS
 10
163.141402
 20
340.169891
 11
163.141402
 21
337.569891
  0
LINE
  8
1
 62
7
  6
CONTINUOUS
 10
163.141402
 20
337.569891
 11
165.741402
 21
337.569891
  0
LINE
  8
1
 62
7
  6
CONTINUOUS
 10
165.741402
 20
337.569891
 11
165.741402
 21
340.169891
  0
LINE
  8
1
 62
7
  6
CONTINUOUS
 10
165.741402
 20
340.169891
 11
163.141402
 21
340.169891
  0
CIRCLE
  8
1
 62
7
  6
CONTINUOUS
 10
164.441402
 20
343.869891
 40
0.500000
  0
CIRCLE
  8
1
 62
7
  6
CONTINUOUS
 10
164.441402
 20
347.869891
 40
0.500000
  0
CIRCLE
  8
1
 62
7
  6
CONTINUOUS
 10
164.441402
 20
351.869891
 40
0.500000
  0
LINE
  8
1
 62
7
  6
CONTINUOUS
 10
161.441402
 20
361.369891
 11
161.441402
 21
329.369891
  0
LINE
  8
1
 62
7
  6
CONTINUOUS
 10
161.441402
 20
329.369891
 11
167.441402
 21
329.369891
  0
LINE
  8
1
 62
7
  6
CONTINUOUS
 10
167.441402
 20
329.369891
 11
167.441402
 21
361.369891
  0
LINE
  8
1
 62
7
  6
CONTINUOUS
 10
167.441402
 20
361.369891
 11
161.441402
 21
361.369891
  0
LINE
  8
1
 62
7
  6
CONTINUOUS
 10
155.424473
 20
329.769891
 11
161.441402
 21
329.769891
  0
LINE
  8
1
 62
7
  6
CONTINUOUS
 10
161.241402
 20
329.969891
 11
161.241402
 21
354.969891
  0
LINE
  8
1
 62
7
  6
CONTINUOUS
 10
155.641402
 20
329.969891
 11
161.241402
 21
329.969891
  0
LINE
  8
1
 62
7
  6
CONTINUOUS
 10
155.641402
 20
354.969891
 11
155.641402
 21
329.969891
  0
LINE
  8
1
 62
7
  6
CONTINUOUS
 10
161.048945
 20
360.589294
 11
161.048945
 21
355.569891
  0
LINE
  8
1
 62
7
  6
CONTINUOUS
 10
155.824473
 20
355.569891
 11
161.048945
 21
355.569891
  0
LINE
  8
1
 62
7
  6
CONTINUOUS
 10
155.824473
 20
360.589294
 11
155.824473
 21
355.569891
  0
LINE
  8
1
 62
7
  6
CONTINUOUS
 10
155.824473
 20
360.589294
 11
161.048945
 21
360.589294
  0
LINE
  8
1
 62
7
  6
CONTINUOUS
 10
155.424473
 20
360.993372
 11
161.448945
 21
360.993372
  0
LINE
  8
1
 62
7
  6
CONTINUOUS
 10
157.934670
 20
355.369891
 11
157.658548
 21
355.569716
  0
LINE
  8
1
 62
7
  6
CONTINUOUS
 10
159.039156
 20
355.369891
 11
159.290176
 21
355.569891
  0
LINE
  8
1
 62
7
  6
CONTINUOUS
 10
157.934670
 20
355.369891
 11
159.039156
 21
355.369891
  0
LINE
  8
1
 62
7
  6
CONTINUOUS
 10
155.641402
 20
354.969891
 11
161.241402
 21
354.969891
  0
LINE
  8
1
 62
7
  6
CONTINUOUS
 10
157.141402
 20
335.169891
 11
157.141402
 21
332.569891
  0
LINE
  8
1
 62
7
  6
CONTINUOUS
 10
157.141402
 20
332.569891
 11
159.741402
 21
332.569891
  0
LINE
  8
1
 62
7
  6
CONTINUOUS
 10
159.741402
 20
332.569891
 11
159.741402
 21
335.169891
  0
LINE
  8
1
 62
7
  6
CONTINUOUS
 10
159.741402
 20
335.169891
 11
157.141402
 21
335.169891
  0
LINE
  8
1
 62
7
  6
CONTINUOUS
 10
157.141402
 20
340.169891
 11
157.141402
 21
337.569891
  0
LINE
  8
1
 62
7
  6
CONTINUOUS
 10
157.141402
 20
337.569891
 11
159.741402
 21
337.569891
  0
LINE
  8
1
 62
7
  6
CONTINUOUS
 10
159.741402
 20
337.569891
 11
159.741402
 21
340.169891
  0
LINE
  8
1
 62
7
  6
CONTINUOUS
 10
159.741402
 20
340.169891
 11
157.141402
 21
340.169891
  0
CIRCLE
  8
1
 62
7
  6
CONTINUOUS
 10
158.441402
 20
343.869891
 40
0.500000
  0
CIRCLE
  8
1
 62
7
  6
CONTINUOUS
 10
158.441402
 20
347.869891
 40
0.500000
  0
CIRCLE
  8
1
 62
7
  6
CONTINUOUS
 10
158.441402
 20
351.869891
 40
0.500000
  0
LINE
  8
1
 62
7
  6
CONTINUOUS
 10
155.441402
 20
361.369891
 11
155.441402
 21
329.369891
  0
LINE
  8
1
 62
7
  6
CONTINUOUS
 10
155.441402
 20
329.369891
 11
161.441402
 21
329.369891
  0
LINE
  8
1
 62
7
  6
CONTINUOUS
 10
161.441402
 20
329.369891
 11
161.441402
 21
361.369891
  0
LINE
  8
1
 62
7
  6
CONTINUOUS
 10
161.441402
 20
361.369891
 11
155.441402
 21
361.369891
  0
LINE
  8
1
 62
7
  6
CONTINUOUS
 10
155.241402
 20
329.969891
 11
155.241402
 21
354.969891
  0
LINE
  8
1
 62
7
  6
CONTINUOUS
 10
149.641402
 20
329.969891
 11
155.241402
 21
329.969891
  0
LINE
  8
1
 62
7
  6
CONTINUOUS
 10
149.641402
 20
354.969891
 11
149.641402
 21
329.969891
  0
LINE
  8
1
 62
7
  6
CONTINUOUS
 10
155.048945
 20
360.589294
 11
155.048945
 21
355.569891
  0
LINE
  8
1
 62
7
  6
CONTINUOUS
 10
149.824473
 20
355.569891
 11
155.048945
 21
355.569891
  0
LINE
  8
1
 62
7
  6
CONTINUOUS
 10
149.824473
 20
360.589294
 11
149.824473
 21
355.569891
  0
LINE
  8
1
 62
7
  6
CONTINUOUS
 10
149.824473
 20
360.589294
 11
155.048945
 21
360.589294
  0
LINE
  8
1
 62
7
  6
CONTINUOUS
 10
151.934670
 20
355.369891
 11
151.658548
 21
355.569716
  0
LINE
  8
1
 62
7
  6
CONTINUOUS
 10
153.039156
 20
355.369891
 11
153.290176
 21
355.569891
  0
LINE
  8
1
 62
7
  6
CONTINUOUS
 10
151.934670
 20
355.369891
 11
153.039156
 21
355.369891
  0
LINE
  8
1
 62
7
  6
CONTINUOUS
 10
149.641402
 20
354.969891
 11
155.241402
 21
354.969891
  0
LINE
  8
1
 62
7
  6
CONTINUOUS
 10
151.141402
 20
335.169891
 11
151.141402
 21
332.569891
  0
LINE
  8
1
 62
7
  6
CONTINUOUS
 10
151.141402
 20
332.569891
 11
153.741402
 21
332.569891
  0
LINE
  8
1
 62
7
  6
CONTINUOUS
 10
153.741402
 20
332.569891
 11
153.741402
 21
335.169891
  0
LINE
  8
1
 62
7
  6
CONTINUOUS
 10
153.741402
 20
335.169891
 11
151.141402
 21
335.169891
  0
LINE
  8
1
 62
7
  6
CONTINUOUS
 10
151.141402
 20
340.169891
 11
151.141402
 21
337.569891
  0
LINE
  8
1
 62
7
  6
CONTINUOUS
 10
151.141402
 20
337.569891
 11
153.741402
 21
337.569891
  0
LINE
  8
1
 62
7
  6
CONTINUOUS
 10
153.741402
 20
337.569891
 11
153.741402
 21
340.169891
  0
LINE
  8
1
 62
7
  6
CONTINUOUS
 10
153.741402
 20
340.169891
 11
151.141402
 21
340.169891
  0
CIRCLE
  8
1
 62
7
  6
CONTINUOUS
 10
152.441402
 20
343.869891
 40
0.500000
  0
CIRCLE
  8
1
 62
7
  6
CONTINUOUS
 10
152.441402
 20
347.869891
 40
0.500000
  0
CIRCLE
  8
1
 62
7
  6
CONTINUOUS
 10
152.441402
 20
351.869891
 40
0.500000
  0
LINE
  8
1
 62
7
  6
CONTINUOUS
 10
149.441402
 20
361.369891
 11
149.441402
 21
329.369891
  0
LINE
  8
1
 62
7
  6
CONTINUOUS
 10
149.441402
 20
329.369891
 11
155.441402
 21
329.369891
  0
LINE
  8
1
 62
7
  6
CONTINUOUS
 10
155.441402
 20
329.369891
 11
155.441402
 21
361.369891
  0
LINE
  8
1
 62
7
  6
CONTINUOUS
 10
155.441402
 20
361.369891
 11
149.441402
 21
361.369891
  0
LINE
  8
1
 62
7
  6
CONTINUOUS
 10
149.441402
 20
360.993372
 11
155.448945
 21
360.993372
  0
LINE
  8
1
 62
7
  6
CONTINUOUS
 10
149.441402
 20
329.769891
 11
155.441402
 21
329.769891
  0
LINE
  8
1
 62
7
  6
CONTINUOUS
 10
173.424473
 20
360.993372
 11
179.441402
 21
360.993372
  0
LINE
  8
1
 62
7
  6
CONTINUOUS
 10
203.424473
 20
329.769891
 11
209.441402
 21
329.769891
  0
LINE
  8
1
 62
7
  6
CONTINUOUS
 10
209.241402
 20
329.969891
 11
209.241402
 21
354.969891
  0
LINE
  8
1
 62
7
  6
CONTINUOUS
 10
203.641402
 20
329.969891
 11
209.241402
 21
329.969891
  0
LINE
  8
1
 62
7
  6
CONTINUOUS
 10
203.641402
 20
354.969891
 11
203.641402
 21
329.969891
  0
LINE
  8
1
 62
7
  6
CONTINUOUS
 10
209.048945
 20
360.589294
 11
209.048945
 21
355.569891
  0
LINE
  8
1
 62
7
  6
CONTINUOUS
 10
203.824473
 20
355.569891
 11
209.048945
 21
355.569891
  0
LINE
  8
1
 62
7
  6
CONTINUOUS
 10
203.824473
 20
360.589294
 11
203.824473
 21
355.569891
  0
LINE
  8
1
 62
7
  6
CONTINUOUS
 10
203.824473
 20
360.589294
 11
209.048945
 21
360.589294
  0
LINE
  8
1
 62
7
  6
CONTINUOUS
 10
205.934670
 20
355.369891
 11
205.658548
 21
355.569716
  0
LINE
  8
1
 62
7
  6
CONTINUOUS
 10
207.039156
 20
355.369891
 11
207.290176
 21
355.569891
  0
LINE
  8
1
 62
7
  6
CONTINUOUS
 10
205.934670
 20
355.369891
 11
207.039156
 21
355.369891
  0
LINE
  8
1
 62
7
  6
CONTINUOUS
 10
203.641402
 20
354.969891
 11
209.241402
 21
354.969891
  0
LINE
  8
1
 62
7
  6
CONTINUOUS
 10
205.141402
 20
335.169891
 11
205.141402
 21
332.569891
  0
LINE
  8
1
 62
7
  6
CONTINUOUS
 10
205.141402
 20
332.569891
 11
207.741402
 21
332.569891
  0
LINE
  8
1
 62
7
  6
CONTINUOUS
 10
207.741402
 20
332.569891
 11
207.741402
 21
335.169891
  0
LINE
  8
1
 62
7
  6
CONTINUOUS
 10
207.741402
 20
335.169891
 11
205.141402
 21
335.169891
  0
LINE
  8
1
 62
7
  6
CONTINUOUS
 10
205.141402
 20
340.169891
 11
205.141402
 21
337.569891
  0
LINE
  8
1
 62
7
  6
CONTINUOUS
 10
205.141402
 20
337.569891
 11
207.741402
 21
337.569891
  0
LINE
  8
1
 62
7
  6
CONTINUOUS
 10
207.741402
 20
337.569891
 11
207.741402
 21
340.169891
  0
LINE
  8
1
 62
7
  6
CONTINUOUS
 10
207.741402
 20
340.169891
 11
205.141402
 21
340.169891
  0
CIRCLE
  8
1
 62
7
  6
CONTINUOUS
 10
206.441402
 20
343.869891
 40
0.500000
  0
CIRCLE
  8
1
 62
7
  6
CONTINUOUS
 10
206.441402
 20
347.869891
 40
0.500000
  0
CIRCLE
  8
1
 62
7
  6
CONTINUOUS
 10
206.441402
 20
351.869891
 40
0.500000
  0
LINE
  8
1
 62
7
  6
CONTINUOUS
 10
203.441402
 20
361.369891
 11
203.441402
 21
329.369891
  0
LINE
  8
1
 62
7
  6
CONTINUOUS
 10
203.441402
 20
329.369891
 11
209.441402
 21
329.369891
  0
LINE
  8
1
 62
7
  6
CONTINUOUS
 10
209.441402
 20
329.369891
 11
209.441402
 21
361.369891
  0
LINE
  8
1
 62
7
  6
CONTINUOUS
 10
209.441402
 20
361.369891
 11
203.441402
 21
361.369891
  0
LINE
  8
1
 62
7
  6
CONTINUOUS
 10
197.424473
 20
329.769891
 11
203.441402
 21
329.769891
  0
LINE
  8
1
 62
7
  6
CONTINUOUS
 10
203.241402
 20
329.969891
 11
203.241402
 21
354.969891
  0
LINE
  8
1
 62
7
  6
CONTINUOUS
 10
197.641402
 20
329.969891
 11
203.241402
 21
329.969891
  0
LINE
  8
1
 62
7
  6
CONTINUOUS
 10
197.641402
 20
354.969891
 11
197.641402
 21
329.969891
  0
LINE
  8
1
 62
7
  6
CONTINUOUS
 10
203.048945
 20
360.589294
 11
203.048945
 21
355.569891
  0
LINE
  8
1
 62
7
  6
CONTINUOUS
 10
197.824473
 20
355.569891
 11
203.048945
 21
355.569891
  0
LINE
  8
1
 62
7
  6
CONTINUOUS
 10
197.824473
 20
360.589294
 11
197.824473
 21
355.569891
  0
LINE
  8
1
 62
7
  6
CONTINUOUS
 10
197.824473
 20
360.589294
 11
203.048945
 21
360.589294
  0
LINE
  8
1
 62
7
  6
CONTINUOUS
 10
197.424473
 20
360.993372
 11
203.448945
 21
360.993372
  0
LINE
  8
1
 62
7
  6
CONTINUOUS
 10
199.934670
 20
355.369891
 11
199.658548
 21
355.569716
  0
LINE
  8
1
 62
7
  6
CONTINUOUS
 10
201.039156
 20
355.369891
 11
201.290176
 21
355.569891
  0
LINE
  8
1
 62
7
  6
CONTINUOUS
 10
199.934670
 20
355.369891
 11
201.039156
 21
355.369891
  0
LINE
  8
1
 62
7
  6
CONTINUOUS
 10
197.641402
 20
354.969891
 11
203.241402
 21
354.969891
  0
LINE
  8
1
 62
7
  6
CONTINUOUS
 10
199.141402
 20
335.169891
 11
199.141402
 21
332.569891
  0
LINE
  8
1
 62
7
  6
CONTINUOUS
 10
199.141402
 20
332.569891
 11
201.741402
 21
332.569891
  0
LINE
  8
1
 62
7
  6
CONTINUOUS
 10
201.741402
 20
332.569891
 11
201.741402
 21
335.169891
  0
LINE
  8
1
 62
7
  6
CONTINUOUS
 10
201.741402
 20
335.169891
 11
199.141402
 21
335.169891
  0
LINE
  8
1
 62
7
  6
CONTINUOUS
 10
199.141402
 20
340.169891
 11
199.141402
 21
337.569891
  0
LINE
  8
1
 62
7
  6
CONTINUOUS
 10
199.141402
 20
337.569891
 11
201.741402
 21
337.569891
  0
LINE
  8
1
 62
7
  6
CONTINUOUS
 10
201.741402
 20
337.569891
 11
201.741402
 21
340.169891
  0
LINE
  8
1
 62
7
  6
CONTINUOUS
 10
201.741402
 20
340.169891
 11
199.141402
 21
340.169891
  0
CIRCLE
  8
1
 62
7
  6
CONTINUOUS
 10
200.441402
 20
343.869891
 40
0.500000
  0
CIRCLE
  8
1
 62
7
  6
CONTINUOUS
 10
200.441402
 20
347.869891
 40
0.500000
  0
CIRCLE
  8
1
 62
7
  6
CONTINUOUS
 10
200.441402
 20
351.869891
 40
0.500000
  0
LINE
  8
1
 62
7
  6
CONTINUOUS
 10
197.441402
 20
361.369891
 11
197.441402
 21
329.369891
  0
LINE
  8
1
 62
7
  6
CONTINUOUS
 10
197.441402
 20
329.369891
 11
203.441402
 21
329.369891
  0
LINE
  8
1
 62
7
  6
CONTINUOUS
 10
203.441402
 20
329.369891
 11
203.441402
 21
361.369891
  0
LINE
  8
1
 62
7
  6
CONTINUOUS
 10
203.441402
 20
361.369891
 11
197.441402
 21
361.369891
  0
LINE
  8
1
 62
7
  6
CONTINUOUS
 10
191.424473
 20
329.769891
 11
197.441402
 21
329.769891
  0
LINE
  8
1
 62
7
  6
CONTINUOUS
 10
197.241402
 20
329.969891
 11
197.241402
 21
354.969891
  0
LINE
  8
1
 62
7
  6
CONTINUOUS
 10
191.641402
 20
329.969891
 11
197.241402
 21
329.969891
  0
LINE
  8
1
 62
7
  6
CONTINUOUS
 10
191.641402
 20
354.969891
 11
191.641402
 21
329.969891
  0
LINE
  8
1
 62
7
  6
CONTINUOUS
 10
197.048945
 20
360.589294
 11
197.048945
 21
355.569891
  0
LINE
  8
1
 62
7
  6
CONTINUOUS
 10
191.824473
 20
355.569891
 11
197.048945
 21
355.569891
  0
LINE
  8
1
 62
7
  6
CONTINUOUS
 10
191.824473
 20
360.589294
 11
191.824473
 21
355.569891
  0
LINE
  8
1
 62
7
  6
CONTINUOUS
 10
191.824473
 20
360.589294
 11
197.048945
 21
360.589294
  0
LINE
  8
1
 62
7
  6
CONTINUOUS
 10
191.424473
 20
360.993372
 11
197.448945
 21
360.993372
  0
LINE
  8
1
 62
7
  6
CONTINUOUS
 10
193.934670
 20
355.369891
 11
193.658548
 21
355.569716
  0
LINE
  8
1
 62
7
  6
CONTINUOUS
 10
195.039156
 20
355.369891
 11
195.290176
 21
355.569891
  0
LINE
  8
1
 62
7
  6
CONTINUOUS
 10
193.934670
 20
355.369891
 11
195.039156
 21
355.369891
  0
LINE
  8
1
 62
7
  6
CONTINUOUS
 10
191.641402
 20
354.969891
 11
197.241402
 21
354.969891
  0
LINE
  8
1
 62
7
  6
CONTINUOUS
 10
193.141402
 20
335.169891
 11
193.141402
 21
332.569891
  0
LINE
  8
1
 62
7
  6
CONTINUOUS
 10
193.141402
 20
332.569891
 11
195.741402
 21
332.569891
  0
LINE
  8
1
 62
7
  6
CONTINUOUS
 10
195.741402
 20
332.569891
 11
195.741402
 21
335.169891
  0
LINE
  8
1
 62
7
  6
CONTINUOUS
 10
195.741402
 20
335.169891
 11
193.141402
 21
335.169891
  0
LINE
  8
1
 62
7
  6
CONTINUOUS
 10
193.141402
 20
340.169891
 11
193.141402
 21
337.569891
  0
LINE
  8
1
 62
7
  6
CONTINUOUS
 10
193.141402
 20
337.569891
 11
195.741402
 21
337.569891
  0
LINE
  8
1
 62
7
  6
CONTINUOUS
 10
195.741402
 20
337.569891
 11
195.741402
 21
340.169891
  0
LINE
  8
1
 62
7
  6
CONTINUOUS
 10
195.741402
 20
340.169891
 11
193.141402
 21
340.169891
  0
CIRCLE
  8
1
 62
7
  6
CONTINUOUS
 10
194.441402
 20
343.869891
 40
0.500000
  0
CIRCLE
  8
1
 62
7
  6
CONTINUOUS
 10
194.441402
 20
347.869891
 40
0.500000
  0
CIRCLE
  8
1
 62
7
  6
CONTINUOUS
 10
194.441402
 20
351.869891
 40
0.500000
  0
LINE
  8
1
 62
7
  6
CONTINUOUS
 10
191.441402
 20
361.369891
 11
191.441402
 21
329.369891
  0
LINE
  8
1
 62
7
  6
CONTINUOUS
 10
191.441402
 20
329.369891
 11
197.441402
 21
329.369891
  0
LINE
  8
1
 62
7
  6
CONTINUOUS
 10
197.441402
 20
329.369891
 11
197.441402
 21
361.369891
  0
LINE
  8
1
 62
7
  6
CONTINUOUS
 10
197.441402
 20
361.369891
 11
191.441402
 21
361.369891
  0
LINE
  8
1
 62
7
  6
CONTINUOUS
 10
185.424473
 20
329.769891
 11
191.441402
 21
329.769891
  0
LINE
  8
1
 62
7
  6
CONTINUOUS
 10
191.241402
 20
329.969891
 11
191.241402
 21
354.969891
  0
LINE
  8
1
 62
7
  6
CONTINUOUS
 10
185.641402
 20
329.969891
 11
191.241402
 21
329.969891
  0
LINE
  8
1
 62
7
  6
CONTINUOUS
 10
185.641402
 20
354.969891
 11
185.641402
 21
329.969891
  0
LINE
  8
1
 62
7
  6
CONTINUOUS
 10
191.048945
 20
360.589294
 11
191.048945
 21
355.569891
  0
LINE
  8
1
 62
7
  6
CONTINUOUS
 10
185.824473
 20
355.569891
 11
191.048945
 21
355.569891
  0
LINE
  8
1
 62
7
  6
CONTINUOUS
 10
185.824473
 20
360.589294
 11
185.824473
 21
355.569891
  0
LINE
  8
1
 62
7
  6
CONTINUOUS
 10
185.824473
 20
360.589294
 11
191.048945
 21
360.589294
  0
LINE
  8
1
 62
7
  6
CONTINUOUS
 10
185.424473
 20
360.993372
 11
191.448945
 21
360.993372
  0
LINE
  8
1
 62
7
  6
CONTINUOUS
 10
187.934670
 20
355.369891
 11
187.658548
 21
355.569716
  0
LINE
  8
1
 62
7
  6
CONTINUOUS
 10
189.039156
 20
355.369891
 11
189.290176
 21
355.569891
  0
LINE
  8
1
 62
7
  6
CONTINUOUS
 10
187.934670
 20
355.369891
 11
189.039156
 21
355.369891
  0
LINE
  8
1
 62
7
  6
CONTINUOUS
 10
185.641402
 20
354.969891
 11
191.241402
 21
354.969891
  0
LINE
  8
1
 62
7
  6
CONTINUOUS
 10
187.141402
 20
335.169891
 11
187.141402
 21
332.569891
  0
LINE
  8
1
 62
7
  6
CONTINUOUS
 10
187.141402
 20
332.569891
 11
189.741402
 21
332.569891
  0
LINE
  8
1
 62
7
  6
CONTINUOUS
 10
189.741402
 20
332.569891
 11
189.741402
 21
335.169891
  0
LINE
  8
1
 62
7
  6
CONTINUOUS
 10
189.741402
 20
335.169891
 11
187.141402
 21
335.169891
  0
LINE
  8
1
 62
7
  6
CONTINUOUS
 10
187.141402
 20
340.169891
 11
187.141402
 21
337.569891
  0
LINE
  8
1
 62
7
  6
CONTINUOUS
 10
187.141402
 20
337.569891
 11
189.741402
 21
337.569891
  0
LINE
  8
1
 62
7
  6
CONTINUOUS
 10
189.741402
 20
337.569891
 11
189.741402
 21
340.169891
  0
LINE
  8
1
 62
7
  6
CONTINUOUS
 10
189.741402
 20
340.169891
 11
187.141402
 21
340.169891
  0
CIRCLE
  8
1
 62
7
  6
CONTINUOUS
 10
188.441402
 20
343.869891
 40
0.500000
  0
CIRCLE
  8
1
 62
7
  6
CONTINUOUS
 10
188.441402
 20
347.869891
 40
0.500000
  0
CIRCLE
  8
1
 62
7
  6
CONTINUOUS
 10
188.441402
 20
351.869891
 40
0.500000
  0
LINE
  8
1
 62
7
  6
CONTINUOUS
 10
185.441402
 20
361.369891
 11
185.441402
 21
329.369891
  0
LINE
  8
1
 62
7
  6
CONTINUOUS
 10
185.441402
 20
329.369891
 11
191.441402
 21
329.369891
  0
LINE
  8
1
 62
7
  6
CONTINUOUS
 10
191.441402
 20
329.369891
 11
191.441402
 21
361.369891
  0
LINE
  8
1
 62
7
  6
CONTINUOUS
 10
191.441402
 20
361.369891
 11
185.441402
 21
361.369891
  0
LINE
  8
1
 62
7
  6
CONTINUOUS
 10
185.241402
 20
329.969891
 11
185.241402
 21
354.969891
  0
LINE
  8
1
 62
7
  6
CONTINUOUS
 10
179.641402
 20
329.969891
 11
185.241402
 21
329.969891
  0
LINE
  8
1
 62
7
  6
CONTINUOUS
 10
179.641402
 20
354.969891
 11
179.641402
 21
329.969891
  0
LINE
  8
1
 62
7
  6
CONTINUOUS
 10
185.048945
 20
360.589294
 11
185.048945
 21
355.569891
  0
LINE
  8
1
 62
7
  6
CONTINUOUS
 10
179.824473
 20
355.569891
 11
185.048945
 21
355.569891
  0
LINE
  8
1
 62
7
  6
CONTINUOUS
 10
179.824473
 20
360.589294
 11
179.824473
 21
355.569891
  0
LINE
  8
1
 62
7
  6
CONTINUOUS
 10
179.824473
 20
360.589294
 11
185.048945
 21
360.589294
  0
LINE
  8
1
 62
7
  6
CONTINUOUS
 10
181.934670
 20
355.369891
 11
181.658548
 21
355.569716
  0
LINE
  8
1
 62
7
  6
CONTINUOUS
 10
183.039156
 20
355.369891
 11
183.290176
 21
355.569891
  0
LINE
  8
1
 62
7
  6
CONTINUOUS
 10
181.934670
 20
355.369891
 11
183.039156
 21
355.369891
  0
LINE
  8
1
 62
7
  6
CONTINUOUS
 10
179.641402
 20
354.969891
 11
185.241402
 21
354.969891
  0
LINE
  8
1
 62
7
  6
CONTINUOUS
 10
181.141402
 20
335.169891
 11
181.141402
 21
332.569891
  0
LINE
  8
1
 62
7
  6
CONTINUOUS
 10
181.141402
 20
332.569891
 11
183.741402
 21
332.569891
  0
LINE
  8
1
 62
7
  6
CONTINUOUS
 10
183.741402
 20
332.569891
 11
183.741402
 21
335.169891
  0
LINE
  8
1
 62
7
  6
CONTINUOUS
 10
183.741402
 20
335.169891
 11
181.141402
 21
335.169891
  0
LINE
  8
1
 62
7
  6
CONTINUOUS
 10
181.141402
 20
340.169891
 11
181.141402
 21
337.569891
  0
LINE
  8
1
 62
7
  6
CONTINUOUS
 10
181.141402
 20
337.569891
 11
183.741402
 21
337.569891
  0
LINE
  8
1
 62
7
  6
CONTINUOUS
 10
183.741402
 20
337.569891
 11
183.741402
 21
340.169891
  0
LINE
  8
1
 62
7
  6
CONTINUOUS
 10
183.741402
 20
340.169891
 11
181.141402
 21
340.169891
  0
CIRCLE
  8
1
 62
7
  6
CONTINUOUS
 10
182.441402
 20
343.869891
 40
0.500000
  0
CIRCLE
  8
1
 62
7
  6
CONTINUOUS
 10
182.441402
 20
347.869891
 40
0.500000
  0
CIRCLE
  8
1
 62
7
  6
CONTINUOUS
 10
182.441402
 20
351.869891
 40
0.500000
  0
LINE
  8
1
 62
7
  6
CONTINUOUS
 10
179.441402
 20
361.369891
 11
179.441402
 21
329.369891
  0
LINE
  8
1
 62
7
  6
CONTINUOUS
 10
179.441402
 20
329.369891
 11
185.441402
 21
329.369891
  0
LINE
  8
1
 62
7
  6
CONTINUOUS
 10
185.441402
 20
329.369891
 11
185.441402
 21
361.369891
  0
LINE
  8
1
 62
7
  6
CONTINUOUS
 10
185.441402
 20
361.369891
 11
179.441402
 21
361.369891
  0
LINE
  8
1
 62
7
  6
CONTINUOUS
 10
179.441402
 20
360.993372
 11
185.448945
 21
360.993372
  0
LINE
  8
1
 62
7
  6
CONTINUOUS
 10
179.441402
 20
329.769891
 11
185.441402
 21
329.769891
  0
LINE
  8
1
 62
7
  6
CONTINUOUS
 10
203.424473
 20
360.993372
 11
209.441402
 21
360.993372
  0
LINE
  8
1
 62
7
  6
CONTINUOUS
 10
173.424473
 20
291.769891
 11
179.441402
 21
291.769891
  0
LINE
  8
1
 62
7
  6
CONTINUOUS
 10
179.241402
 20
291.969891
 11
179.241402
 21
316.969891
  0
LINE
  8
1
 62
7
  6
CONTINUOUS
 10
173.641402
 20
291.969891
 11
179.241402
 21
291.969891
  0
LINE
  8
1
 62
7
  6
CONTINUOUS
 10
173.641402
 20
316.969891
 11
173.641402
 21
291.969891
  0
LINE
  8
1
 62
7
  6
CONTINUOUS
 10
179.048945
 20
322.589294
 11
179.048945
 21
317.569891
  0
LINE
  8
1
 62
7
  6
CONTINUOUS
 10
173.824473
 20
317.569891
 11
179.048945
 21
317.569891
  0
LINE
  8
1
 62
7
  6
CONTINUOUS
 10
173.824473
 20
322.589294
 11
173.824473
 21
317.569891
  0
LINE
  8
1
 62
7
  6
CONTINUOUS
 10
173.824473
 20
322.589294
 11
179.048945
 21
322.589294
  0
LINE
  8
1
 62
7
  6
CONTINUOUS
 10
175.934670
 20
317.369891
 11
175.658548
 21
317.569716
  0
LINE
  8
1
 62
7
  6
CONTINUOUS
 10
177.039156
 20
317.369891
 11
177.290176
 21
317.569891
  0
LINE
  8
1
 62
7
  6
CONTINUOUS
 10
175.934670
 20
317.369891
 11
177.039156
 21
317.369891
  0
LINE
  8
1
 62
7
  6
CONTINUOUS
 10
173.641402
 20
316.969891
 11
179.241402
 21
316.969891
  0
LINE
  8
1
 62
7
  6
CONTINUOUS
 10
175.141402
 20
297.169891
 11
175.141402
 21
294.569891
  0
LINE
  8
1
 62
7
  6
CONTINUOUS
 10
175.141402
 20
294.569891
 11
177.741402
 21
294.569891
  0
LINE
  8
1
 62
7
  6
CONTINUOUS
 10
177.741402
 20
294.569891
 11
177.741402
 21
297.169891
  0
LINE
  8
1
 62
7
  6
CONTINUOUS
 10
177.741402
 20
297.169891
 11
175.141402
 21
297.169891
  0
LINE
  8
1
 62
7
  6
CONTINUOUS
 10
175.141402
 20
302.169891
 11
175.141402
 21
299.569891
  0
LINE
  8
1
 62
7
  6
CONTINUOUS
 10
175.141402
 20
299.569891
 11
177.741402
 21
299.569891
  0
LINE
  8
1
 62
7
  6
CONTINUOUS
 10
177.741402
 20
299.569891
 11
177.741402
 21
302.169891
  0
LINE
  8
1
 62
7
  6
CONTINUOUS
 10
177.741402
 20
302.169891
 11
175.141402
 21
302.169891
  0
CIRCLE
  8
1
 62
7
  6
CONTINUOUS
 10
176.441402
 20
305.869891
 40
0.500000
  0
CIRCLE
  8
1
 62
7
  6
CONTINUOUS
 10
176.441402
 20
309.869891
 40
0.500000
  0
CIRCLE
  8
1
 62
7
  6
CONTINUOUS
 10
176.441402
 20
313.869891
 40
0.500000
  0
LINE
  8
1
 62
7
  6
CONTINUOUS
 10
173.441402
 20
323.369891
 11
173.441402
 21
291.369891
  0
LINE
  8
1
 62
7
  6
CONTINUOUS
 10
173.441402
 20
291.369891
 11
179.441402
 21
291.369891
  0
LINE
  8
1
 62
7
  6
CONTINUOUS
 10
179.441402
 20
291.369891
 11
179.441402
 21
323.369891
  0
LINE
  8
1
 62
7
  6
CONTINUOUS
 10
179.441402
 20
323.369891
 11
173.441402
 21
323.369891
  0
LINE
  8
1
 62
7
  6
CONTINUOUS
 10
167.424473
 20
291.769891
 11
173.441402
 21
291.769891
  0
LINE
  8
1
 62
7
  6
CONTINUOUS
 10
173.241402
 20
291.969891
 11
173.241402
 21
316.969891
  0
LINE
  8
1
 62
7
  6
CONTINUOUS
 10
167.641402
 20
291.969891
 11
173.241402
 21
291.969891
  0
LINE
  8
1
 62
7
  6
CONTINUOUS
 10
167.641402
 20
316.969891
 11
167.641402
 21
291.969891
  0
LINE
  8
1
 62
7
  6
CONTINUOUS
 10
173.048945
 20
322.589294
 11
173.048945
 21
317.569891
  0
LINE
  8
1
 62
7
  6
CONTINUOUS
 10
167.824473
 20
317.569891
 11
173.048945
 21
317.569891
  0
LINE
  8
1
 62
7
  6
CONTINUOUS
 10
167.824473
 20
322.589294
 11
167.824473
 21
317.569891
  0
LINE
  8
1
 62
7
  6
CONTINUOUS
 10
167.824473
 20
322.589294
 11
173.048945
 21
322.589294
  0
LINE
  8
1
 62
7
  6
CONTINUOUS
 10
167.424473
 20
322.993372
 11
173.448945
 21
322.993372
  0
LINE
  8
1
 62
7
  6
CONTINUOUS
 10
169.934670
 20
317.369891
 11
169.658548
 21
317.569716
  0
LINE
  8
1
 62
7
  6
CONTINUOUS
 10
171.039156
 20
317.369891
 11
171.290176
 21
317.569891
  0
LINE
  8
1
 62
7
  6
CONTINUOUS
 10
169.934670
 20
317.369891
 11
171.039156
 21
317.369891
  0
LINE
  8
1
 62
7
  6
CONTINUOUS
 10
167.641402
 20
316.969891
 11
173.241402
 21
316.969891
  0
LINE
  8
1
 62
7
  6
CONTINUOUS
 10
169.141402
 20
297.169891
 11
169.141402
 21
294.569891
  0
LINE
  8
1
 62
7
  6
CONTINUOUS
 10
169.141402
 20
294.569891
 11
171.741402
 21
294.569891
  0
LINE
  8
1
 62
7
  6
CONTINUOUS
 10
171.741402
 20
294.569891
 11
171.741402
 21
297.169891
  0
LINE
  8
1
 62
7
  6
CONTINUOUS
 10
171.741402
 20
297.169891
 11
169.141402
 21
297.169891
  0
LINE
  8
1
 62
7
  6
CONTINUOUS
 10
169.141402
 20
302.169891
 11
169.141402
 21
299.569891
  0
LINE
  8
1
 62
7
  6
CONTINUOUS
 10
169.141402
 20
299.569891
 11
171.741402
 21
299.569891
  0
LINE
  8
1
 62
7
  6
CONTINUOUS
 10
171.741402
 20
299.569891
 11
171.741402
 21
302.169891
  0
LINE
  8
1
 62
7
  6
CONTINUOUS
 10
171.741402
 20
302.169891
 11
169.141402
 21
302.169891
  0
CIRCLE
  8
1
 62
7
  6
CONTINUOUS
 10
170.441402
 20
305.869891
 40
0.500000
  0
CIRCLE
  8
1
 62
7
  6
CONTINUOUS
 10
170.441402
 20
309.869891
 40
0.500000
  0
CIRCLE
  8
1
 62
7
  6
CONTINUOUS
 10
170.441402
 20
313.869891
 40
0.500000
  0
LINE
  8
1
 62
7
  6
CONTINUOUS
 10
167.441402
 20
323.369891
 11
167.441402
 21
291.369891
  0
LINE
  8
1
 62
7
  6
CONTINUOUS
 10
167.441402
 20
291.369891
 11
173.441402
 21
291.369891
  0
LINE
  8
1
 62
7
  6
CONTINUOUS
 10
173.441402
 20
291.369891
 11
173.441402
 21
323.369891
  0
LINE
  8
1
 62
7
  6
CONTINUOUS
 10
173.441402
 20
323.369891
 11
167.441402
 21
323.369891
  0
LINE
  8
1
 62
7
  6
CONTINUOUS
 10
161.424473
 20
291.769891
 11
167.441402
 21
291.769891
  0
LINE
  8
1
 62
7
  6
CONTINUOUS
 10
167.241402
 20
291.969891
 11
167.241402
 21
316.969891
  0
LINE
  8
1
 62
7
  6
CONTINUOUS
 10
161.641402
 20
291.969891
 11
167.241402
 21
291.969891
  0
LINE
  8
1
 62
7
  6
CONTINUOUS
 10
161.641402
 20
316.969891
 11
161.641402
 21
291.969891
  0
LINE
  8
1
 62
7
  6
CONTINUOUS
 10
167.048945
 20
322.589294
 11
167.048945
 21
317.569891
  0
LINE
  8
1
 62
7
  6
CONTINUOUS
 10
161.824473
 20
317.569891
 11
167.048945
 21
317.569891
  0
LINE
  8
1
 62
7
  6
CONTINUOUS
 10
161.824473
 20
322.589294
 11
161.824473
 21
317.569891
  0
LINE
  8
1
 62
7
  6
CONTINUOUS
 10
161.824473
 20
322.589294
 11
167.048945
 21
322.589294
  0
LINE
  8
1
 62
7
  6
CONTINUOUS
 10
161.424473
 20
322.993372
 11
167.448945
 21
322.993372
  0
LINE
  8
1
 62
7
  6
CONTINUOUS
 10
163.934670
 20
317.369891
 11
163.658548
 21
317.569716
  0
LINE
  8
1
 62
7
  6
CONTINUOUS
 10
165.039156
 20
317.369891
 11
165.290176
 21
317.569891
  0
LINE
  8
1
 62
7
  6
CONTINUOUS
 10
163.934670
 20
317.369891
 11
165.039156
 21
317.369891
  0
LINE
  8
1
 62
7
  6
CONTINUOUS
 10
161.641402
 20
316.969891
 11
167.241402
 21
316.969891
  0
LINE
  8
1
 62
7
  6
CONTINUOUS
 10
163.141402
 20
297.169891
 11
163.141402
 21
294.569891
  0
LINE
  8
1
 62
7
  6
CONTINUOUS
 10
163.141402
 20
294.569891
 11
165.741402
 21
294.569891
  0
LINE
  8
1
 62
7
  6
CONTINUOUS
 10
165.741402
 20
294.569891
 11
165.741402
 21
297.169891
  0
LINE
  8
1
 62
7
  6
CONTINUOUS
 10
165.741402
 20
297.169891
 11
163.141402
 21
297.169891
  0
LINE
  8
1
 62
7
  6
CONTINUOUS
 10
163.141402
 20
302.169891
 11
163.141402
 21
299.569891
  0
LINE
  8
1
 62
7
  6
CONTINUOUS
 10
163.141402
 20
299.569891
 11
165.741402
 21
299.569891
  0
LINE
  8
1
 62
7
  6
CONTINUOUS
 10
165.741402
 20
299.569891
 11
165.741402
 21
302.169891
  0
LINE
  8
1
 62
7
  6
CONTINUOUS
 10
165.741402
 20
302.169891
 11
163.141402
 21
302.169891
  0
CIRCLE
  8
1
 62
7
  6
CONTINUOUS
 10
164.441402
 20
305.869891
 40
0.500000
  0
CIRCLE
  8
1
 62
7
  6
CONTINUOUS
 10
164.441402
 20
309.869891
 40
0.500000
  0
CIRCLE
  8
1
 62
7
  6
CONTINUOUS
 10
164.441402
 20
313.869891
 40
0.500000
  0
LINE
  8
1
 62
7
  6
CONTINUOUS
 10
161.441402
 20
323.369891
 11
161.441402
 21
291.369891
  0
LINE
  8
1
 62
7
  6
CONTINUOUS
 10
161.441402
 20
291.369891
 11
167.441402
 21
291.369891
  0
LINE
  8
1
 62
7
  6
CONTINUOUS
 10
167.441402
 20
291.369891
 11
167.441402
 21
323.369891
  0
LINE
  8
1
 62
7
  6
CONTINUOUS
 10
167.441402
 20
323.369891
 11
161.441402
 21
323.369891
  0
LINE
  8
1
 62
7
  6
CONTINUOUS
 10
155.424473
 20
291.769891
 11
161.441402
 21
291.769891
  0
LINE
  8
1
 62
7
  6
CONTINUOUS
 10
161.241402
 20
291.969891
 11
161.241402
 21
316.969891
  0
LINE
  8
1
 62
7
  6
CONTINUOUS
 10
155.641402
 20
291.969891
 11
161.241402
 21
291.969891
  0
LINE
  8
1
 62
7
  6
CONTINUOUS
 10
155.641402
 20
316.969891
 11
155.641402
 21
291.969891
  0
LINE
  8
1
 62
7
  6
CONTINUOUS
 10
161.048945
 20
322.589294
 11
161.048945
 21
317.569891
  0
LINE
  8
1
 62
7
  6
CONTINUOUS
 10
155.824473
 20
317.569891
 11
161.048945
 21
317.569891
  0
LINE
  8
1
 62
7
  6
CONTINUOUS
 10
155.824473
 20
322.589294
 11
155.824473
 21
317.569891
  0
LINE
  8
1
 62
7
  6
CONTINUOUS
 10
155.824473
 20
322.589294
 11
161.048945
 21
322.589294
  0
LINE
  8
1
 62
7
  6
CONTINUOUS
 10
155.424473
 20
322.993372
 11
161.448945
 21
322.993372
  0
LINE
  8
1
 62
7
  6
CONTINUOUS
 10
157.934670
 20
317.369891
 11
157.658548
 21
317.569716
  0
LINE
  8
1
 62
7
  6
CONTINUOUS
 10
159.039156
 20
317.369891
 11
159.290176
 21
317.569891
  0
LINE
  8
1
 62
7
  6
CONTINUOUS
 10
157.934670
 20
317.369891
 11
159.039156
 21
317.369891
  0
LINE
  8
1
 62
7
  6
CONTINUOUS
 10
155.641402
 20
316.969891
 11
161.241402
 21
316.969891
  0
LINE
  8
1
 62
7
  6
CONTINUOUS
 10
157.141402
 20
297.169891
 11
157.141402
 21
294.569891
  0
LINE
  8
1
 62
7
  6
CONTINUOUS
 10
157.141402
 20
294.569891
 11
159.741402
 21
294.569891
  0
LINE
  8
1
 62
7
  6
CONTINUOUS
 10
159.741402
 20
294.569891
 11
159.741402
 21
297.169891
  0
LINE
  8
1
 62
7
  6
CONTINUOUS
 10
159.741402
 20
297.169891
 11
157.141402
 21
297.169891
  0
LINE
  8
1
 62
7
  6
CONTINUOUS
 10
157.141402
 20
302.169891
 11
157.141402
 21
299.569891
  0
LINE
  8
1
 62
7
  6
CONTINUOUS
 10
157.141402
 20
299.569891
 11
159.741402
 21
299.569891
  0
LINE
  8
1
 62
7
  6
CONTINUOUS
 10
159.741402
 20
299.569891
 11
159.741402
 21
302.169891
  0
LINE
  8
1
 62
7
  6
CONTINUOUS
 10
159.741402
 20
302.169891
 11
157.141402
 21
302.169891
  0
CIRCLE
  8
1
 62
7
  6
CONTINUOUS
 10
158.441402
 20
305.869891
 40
0.500000
  0
CIRCLE
  8
1
 62
7
  6
CONTINUOUS
 10
158.441402
 20
309.869891
 40
0.500000
  0
CIRCLE
  8
1
 62
7
  6
CONTINUOUS
 10
158.441402
 20
313.869891
 40
0.500000
  0
LINE
  8
1
 62
7
  6
CONTINUOUS
 10
155.441402
 20
323.369891
 11
155.441402
 21
291.369891
  0
LINE
  8
1
 62
7
  6
CONTINUOUS
 10
155.441402
 20
291.369891
 11
161.441402
 21
291.369891
  0
LINE
  8
1
 62
7
  6
CONTINUOUS
 10
161.441402
 20
291.369891
 11
161.441402
 21
323.369891
  0
LINE
  8
1
 62
7
  6
CONTINUOUS
 10
161.441402
 20
323.369891
 11
155.441402
 21
323.369891
  0
LINE
  8
1
 62
7
  6
CONTINUOUS
 10
155.241402
 20
291.969891
 11
155.241402
 21
316.969891
  0
LINE
  8
1
 62
7
  6
CONTINUOUS
 10
149.641402
 20
291.969891
 11
155.241402
 21
291.969891
  0
LINE
  8
1
 62
7
  6
CONTINUOUS
 10
149.641402
 20
316.969891
 11
149.641402
 21
291.969891
  0
LINE
  8
1
 62
7
  6
CONTINUOUS
 10
155.048945
 20
322.589294
 11
155.048945
 21
317.569891
  0
LINE
  8
1
 62
7
  6
CONTINUOUS
 10
149.824473
 20
317.569891
 11
155.048945
 21
317.569891
  0
LINE
  8
1
 62
7
  6
CONTINUOUS
 10
149.824473
 20
322.589294
 11
149.824473
 21
317.569891
  0
LINE
  8
1
 62
7
  6
CONTINUOUS
 10
149.824473
 20
322.589294
 11
155.048945
 21
322.589294
  0
LINE
  8
1
 62
7
  6
CONTINUOUS
 10
151.934670
 20
317.369891
 11
151.658548
 21
317.569716
  0
LINE
  8
1
 62
7
  6
CONTINUOUS
 10
153.039156
 20
317.369891
 11
153.290176
 21
317.569891
  0
LINE
  8
1
 62
7
  6
CONTINUOUS
 10
151.934670
 20
317.369891
 11
153.039156
 21
317.369891
  0
LINE
  8
1
 62
7
  6
CONTINUOUS
 10
149.641402
 20
316.969891
 11
155.241402
 21
316.969891
  0
LINE
  8
1
 62
7
  6
CONTINUOUS
 10
151.141402
 20
297.169891
 11
151.141402
 21
294.569891
  0
LINE
  8
1
 62
7
  6
CONTINUOUS
 10
151.141402
 20
294.569891
 11
153.741402
 21
294.569891
  0
LINE
  8
1
 62
7
  6
CONTINUOUS
 10
153.741402
 20
294.569891
 11
153.741402
 21
297.169891
  0
LINE
  8
1
 62
7
  6
CONTINUOUS
 10
153.741402
 20
297.169891
 11
151.141402
 21
297.169891
  0
LINE
  8
1
 62
7
  6
CONTINUOUS
 10
151.141402
 20
302.169891
 11
151.141402
 21
299.569891
  0
LINE
  8
1
 62
7
  6
CONTINUOUS
 10
151.141402
 20
299.569891
 11
153.741402
 21
299.569891
  0
LINE
  8
1
 62
7
  6
CONTINUOUS
 10
153.741402
 20
299.569891
 11
153.741402
 21
302.169891
  0
LINE
  8
1
 62
7
  6
CONTINUOUS
 10
153.741402
 20
302.169891
 11
151.141402
 21
302.169891
  0
CIRCLE
  8
1
 62
7
  6
CONTINUOUS
 10
152.441402
 20
305.869891
 40
0.500000
  0
CIRCLE
  8
1
 62
7
  6
CONTINUOUS
 10
152.441402
 20
309.869891
 40
0.500000
  0
CIRCLE
  8
1
 62
7
  6
CONTINUOUS
 10
152.441402
 20
313.869891
 40
0.500000
  0
LINE
  8
1
 62
7
  6
CONTINUOUS
 10
149.441402
 20
323.369891
 11
149.441402
 21
291.369891
  0
LINE
  8
1
 62
7
  6
CONTINUOUS
 10
149.441402
 20
291.369891
 11
155.441402
 21
291.369891
  0
LINE
  8
1
 62
7
  6
CONTINUOUS
 10
155.441402
 20
291.369891
 11
155.441402
 21
323.369891
  0
LINE
  8
1
 62
7
  6
CONTINUOUS
 10
155.441402
 20
323.369891
 11
149.441402
 21
323.369891
  0
LINE
  8
1
 62
7
  6
CONTINUOUS
 10
149.441402
 20
322.993372
 11
155.448945
 21
322.993372
  0
LINE
  8
1
 62
7
  6
CONTINUOUS
 10
149.441402
 20
291.769891
 11
155.441402
 21
291.769891
  0
LINE
  8
1
 62
7
  6
CONTINUOUS
 10
173.424473
 20
322.993372
 11
179.441402
 21
322.993372
  0
LINE
  8
1
 62
7
  6
CONTINUOUS
 10
203.424473
 20
291.769891
 11
209.441402
 21
291.769891
  0
LINE
  8
1
 62
7
  6
CONTINUOUS
 10
209.241402
 20
291.969891
 11
209.241402
 21
316.969891
  0
LINE
  8
1
 62
7
  6
CONTINUOUS
 10
203.641402
 20
291.969891
 11
209.241402
 21
291.969891
  0
LINE
  8
1
 62
7
  6
CONTINUOUS
 10
203.641402
 20
316.969891
 11
203.641402
 21
291.969891
  0
LINE
  8
1
 62
7
  6
CONTINUOUS
 10
209.048945
 20
322.589294
 11
209.048945
 21
317.569891
  0
LINE
  8
1
 62
7
  6
CONTINUOUS
 10
203.824473
 20
317.569891
 11
209.048945
 21
317.569891
  0
LINE
  8
1
 62
7
  6
CONTINUOUS
 10
203.824473
 20
322.589294
 11
203.824473
 21
317.569891
  0
LINE
  8
1
 62
7
  6
CONTINUOUS
 10
203.824473
 20
322.589294
 11
209.048945
 21
322.589294
  0
LINE
  8
1
 62
7
  6
CONTINUOUS
 10
205.934670
 20
317.369891
 11
205.658548
 21
317.569716
  0
LINE
  8
1
 62
7
  6
CONTINUOUS
 10
207.039156
 20
317.369891
 11
207.290176
 21
317.569891
  0
LINE
  8
1
 62
7
  6
CONTINUOUS
 10
205.934670
 20
317.369891
 11
207.039156
 21
317.369891
  0
LINE
  8
1
 62
7
  6
CONTINUOUS
 10
203.641402
 20
316.969891
 11
209.241402
 21
316.969891
  0
LINE
  8
1
 62
7
  6
CONTINUOUS
 10
205.141402
 20
297.169891
 11
205.141402
 21
294.569891
  0
LINE
  8
1
 62
7
  6
CONTINUOUS
 10
205.141402
 20
294.569891
 11
207.741402
 21
294.569891
  0
LINE
  8
1
 62
7
  6
CONTINUOUS
 10
207.741402
 20
294.569891
 11
207.741402
 21
297.169891
  0
LINE
  8
1
 62
7
  6
CONTINUOUS
 10
207.741402
 20
297.169891
 11
205.141402
 21
297.169891
  0
LINE
  8
1
 62
7
  6
CONTINUOUS
 10
205.141402
 20
302.169891
 11
205.141402
 21
299.569891
  0
LINE
  8
1
 62
7
  6
CONTINUOUS
 10
205.141402
 20
299.569891
 11
207.741402
 21
299.569891
  0
LINE
  8
1
 62
7
  6
CONTINUOUS
 10
207.741402
 20
299.569891
 11
207.741402
 21
302.169891
  0
LINE
  8
1
 62
7
  6
CONTINUOUS
 10
207.741402
 20
302.169891
 11
205.141402
 21
302.169891
  0
CIRCLE
  8
1
 62
7
  6
CONTINUOUS
 10
206.441402
 20
305.869891
 40
0.500000
  0
CIRCLE
  8
1
 62
7
  6
CONTINUOUS
 10
206.441402
 20
309.869891
 40
0.500000
  0
CIRCLE
  8
1
 62
7
  6
CONTINUOUS
 10
206.441402
 20
313.869891
 40
0.500000
  0
LINE
  8
1
 62
7
  6
CONTINUOUS
 10
203.441402
 20
323.369891
 11
203.441402
 21
291.369891
  0
LINE
  8
1
 62
7
  6
CONTINUOUS
 10
203.441402
 20
291.369891
 11
209.441402
 21
291.369891
  0
LINE
  8
1
 62
7
  6
CONTINUOUS
 10
209.441402
 20
291.369891
 11
209.441402
 21
323.369891
  0
LINE
  8
1
 62
7
  6
CONTINUOUS
 10
209.441402
 20
323.369891
 11
203.441402
 21
323.369891
  0
LINE
  8
1
 62
7
  6
CONTINUOUS
 10
197.424473
 20
291.769891
 11
203.441402
 21
291.769891
  0
LINE
  8
1
 62
7
  6
CONTINUOUS
 10
203.241402
 20
291.969891
 11
203.241402
 21
316.969891
  0
LINE
  8
1
 62
7
  6
CONTINUOUS
 10
197.641402
 20
291.969891
 11
203.241402
 21
291.969891
  0
LINE
  8
1
 62
7
  6
CONTINUOUS
 10
197.641402
 20
316.969891
 11
197.641402
 21
291.969891
  0
LINE
  8
1
 62
7
  6
CONTINUOUS
 10
203.048945
 20
322.589294
 11
203.048945
 21
317.569891
  0
LINE
  8
1
 62
7
  6
CONTINUOUS
 10
197.824473
 20
317.569891
 11
203.048945
 21
317.569891
  0
LINE
  8
1
 62
7
  6
CONTINUOUS
 10
197.824473
 20
322.589294
 11
197.824473
 21
317.569891
  0
LINE
  8
1
 62
7
  6
CONTINUOUS
 10
197.824473
 20
322.589294
 11
203.048945
 21
322.589294
  0
LINE
  8
1
 62
7
  6
CONTINUOUS
 10
197.424473
 20
322.993372
 11
203.448945
 21
322.993372
  0
LINE
  8
1
 62
7
  6
CONTINUOUS
 10
199.934670
 20
317.369891
 11
199.658548
 21
317.569716
  0
LINE
  8
1
 62
7
  6
CONTINUOUS
 10
201.039156
 20
317.369891
 11
201.290176
 21
317.569891
  0
LINE
  8
1
 62
7
  6
CONTINUOUS
 10
199.934670
 20
317.369891
 11
201.039156
 21
317.369891
  0
LINE
  8
1
 62
7
  6
CONTINUOUS
 10
197.641402
 20
316.969891
 11
203.241402
 21
316.969891
  0
LINE
  8
1
 62
7
  6
CONTINUOUS
 10
199.141402
 20
297.169891
 11
199.141402
 21
294.569891
  0
LINE
  8
1
 62
7
  6
CONTINUOUS
 10
199.141402
 20
294.569891
 11
201.741402
 21
294.569891
  0
LINE
  8
1
 62
7
  6
CONTINUOUS
 10
201.741402
 20
294.569891
 11
201.741402
 21
297.169891
  0
LINE
  8
1
 62
7
  6
CONTINUOUS
 10
201.741402
 20
297.169891
 11
199.141402
 21
297.169891
  0
LINE
  8
1
 62
7
  6
CONTINUOUS
 10
199.141402
 20
302.169891
 11
199.141402
 21
299.569891
  0
LINE
  8
1
 62
7
  6
CONTINUOUS
 10
199.141402
 20
299.569891
 11
201.741402
 21
299.569891
  0
LINE
  8
1
 62
7
  6
CONTINUOUS
 10
201.741402
 20
299.569891
 11
201.741402
 21
302.169891
  0
LINE
  8
1
 62
7
  6
CONTINUOUS
 10
201.741402
 20
302.169891
 11
199.141402
 21
302.169891
  0
CIRCLE
  8
1
 62
7
  6
CONTINUOUS
 10
200.441402
 20
305.869891
 40
0.500000
  0
CIRCLE
  8
1
 62
7
  6
CONTINUOUS
 10
200.441402
 20
309.869891
 40
0.500000
  0
CIRCLE
  8
1
 62
7
  6
CONTINUOUS
 10
200.441402
 20
313.869891
 40
0.500000
  0
LINE
  8
1
 62
7
  6
CONTINUOUS
 10
197.441402
 20
323.369891
 11
197.441402
 21
291.369891
  0
LINE
  8
1
 62
7
  6
CONTINUOUS
 10
197.441402
 20
291.369891
 11
203.441402
 21
291.369891
  0
LINE
  8
1
 62
7
  6
CONTINUOUS
 10
203.441402
 20
291.369891
 11
203.441402
 21
323.369891
  0
LINE
  8
1
 62
7
  6
CONTINUOUS
 10
203.441402
 20
323.369891
 11
197.441402
 21
323.369891
  0
LINE
  8
1
 62
7
  6
CONTINUOUS
 10
191.424473
 20
291.769891
 11
197.441402
 21
291.769891
  0
LINE
  8
1
 62
7
  6
CONTINUOUS
 10
197.241402
 20
291.969891
 11
197.241402
 21
316.969891
  0
LINE
  8
1
 62
7
  6
CONTINUOUS
 10
191.641402
 20
291.969891
 11
197.241402
 21
291.969891
  0
LINE
  8
1
 62
7
  6
CONTINUOUS
 10
191.641402
 20
316.969891
 11
191.641402
 21
291.969891
  0
LINE
  8
1
 62
7
  6
CONTINUOUS
 10
197.048945
 20
322.589294
 11
197.048945
 21
317.569891
  0
LINE
  8
1
 62
7
  6
CONTINUOUS
 10
191.824473
 20
317.569891
 11
197.048945
 21
317.569891
  0
LINE
  8
1
 62
7
  6
CONTINUOUS
 10
191.824473
 20
322.589294
 11
191.824473
 21
317.569891
  0
LINE
  8
1
 62
7
  6
CONTINUOUS
 10
191.824473
 20
322.589294
 11
197.048945
 21
322.589294
  0
LINE
  8
1
 62
7
  6
CONTINUOUS
 10
191.424473
 20
322.993372
 11
197.448945
 21
322.993372
  0
LINE
  8
1
 62
7
  6
CONTINUOUS
 10
193.934670
 20
317.369891
 11
193.658548
 21
317.569716
  0
LINE
  8
1
 62
7
  6
CONTINUOUS
 10
195.039156
 20
317.369891
 11
195.290176
 21
317.569891
  0
LINE
  8
1
 62
7
  6
CONTINUOUS
 10
193.934670
 20
317.369891
 11
195.039156
 21
317.369891
  0
LINE
  8
1
 62
7
  6
CONTINUOUS
 10
191.641402
 20
316.969891
 11
197.241402
 21
316.969891
  0
LINE
  8
1
 62
7
  6
CONTINUOUS
 10
193.141402
 20
297.169891
 11
193.141402
 21
294.569891
  0
LINE
  8
1
 62
7
  6
CONTINUOUS
 10
193.141402
 20
294.569891
 11
195.741402
 21
294.569891
  0
LINE
  8
1
 62
7
  6
CONTINUOUS
 10
195.741402
 20
294.569891
 11
195.741402
 21
297.169891
  0
LINE
  8
1
 62
7
  6
CONTINUOUS
 10
195.741402
 20
297.169891
 11
193.141402
 21
297.169891
  0
LINE
  8
1
 62
7
  6
CONTINUOUS
 10
193.141402
 20
302.169891
 11
193.141402
 21
299.569891
  0
LINE
  8
1
 62
7
  6
CONTINUOUS
 10
193.141402
 20
299.569891
 11
195.741402
 21
299.569891
  0
LINE
  8
1
 62
7
  6
CONTINUOUS
 10
195.741402
 20
299.569891
 11
195.741402
 21
302.169891
  0
LINE
  8
1
 62
7
  6
CONTINUOUS
 10
195.741402
 20
302.169891
 11
193.141402
 21
302.169891
  0
CIRCLE
  8
1
 62
7
  6
CONTINUOUS
 10
194.441402
 20
305.869891
 40
0.500000
  0
CIRCLE
  8
1
 62
7
  6
CONTINUOUS
 10
194.441402
 20
309.869891
 40
0.500000
  0
CIRCLE
  8
1
 62
7
  6
CONTINUOUS
 10
194.441402
 20
313.869891
 40
0.500000
  0
LINE
  8
1
 62
7
  6
CONTINUOUS
 10
191.441402
 20
323.369891
 11
191.441402
 21
291.369891
  0
LINE
  8
1
 62
7
  6
CONTINUOUS
 10
191.441402
 20
291.369891
 11
197.441402
 21
291.369891
  0
LINE
  8
1
 62
7
  6
CONTINUOUS
 10
197.441402
 20
291.369891
 11
197.441402
 21
323.369891
  0
LINE
  8
1
 62
7
  6
CONTINUOUS
 10
197.441402
 20
323.369891
 11
191.441402
 21
323.369891
  0
LINE
  8
1
 62
7
  6
CONTINUOUS
 10
185.424473
 20
291.769891
 11
191.441402
 21
291.769891
  0
LINE
  8
1
 62
7
  6
CONTINUOUS
 10
191.241402
 20
291.969891
 11
191.241402
 21
316.969891
  0
LINE
  8
1
 62
7
  6
CONTINUOUS
 10
185.641402
 20
291.969891
 11
191.241402
 21
291.969891
  0
LINE
  8
1
 62
7
  6
CONTINUOUS
 10
185.641402
 20
316.969891
 11
185.641402
 21
291.969891
  0
LINE
  8
1
 62
7
  6
CONTINUOUS
 10
191.048945
 20
322.589294
 11
191.048945
 21
317.569891
  0
LINE
  8
1
 62
7
  6
CONTINUOUS
 10
185.824473
 20
317.569891
 11
191.048945
 21
317.569891
  0
LINE
  8
1
 62
7
  6
CONTINUOUS
 10
185.824473
 20
322.589294
 11
185.824473
 21
317.569891
  0
LINE
  8
1
 62
7
  6
CONTINUOUS
 10
185.824473
 20
322.589294
 11
191.048945
 21
322.589294
  0
LINE
  8
1
 62
7
  6
CONTINUOUS
 10
185.424473
 20
322.993372
 11
191.448945
 21
322.993372
  0
LINE
  8
1
 62
7
  6
CONTINUOUS
 10
187.934670
 20
317.369891
 11
187.658548
 21
317.569716
  0
LINE
  8
1
 62
7
  6
CONTINUOUS
 10
189.039156
 20
317.369891
 11
189.290176
 21
317.569891
  0
LINE
  8
1
 62
7
  6
CONTINUOUS
 10
187.934670
 20
317.369891
 11
189.039156
 21
317.369891
  0
LINE
  8
1
 62
7
  6
CONTINUOUS
 10
185.641402
 20
316.969891
 11
191.241402
 21
316.969891
  0
LINE
  8
1
 62
7
  6
CONTINUOUS
 10
187.141402
 20
297.169891
 11
187.141402
 21
294.569891
  0
LINE
  8
1
 62
7
  6
CONTINUOUS
 10
187.141402
 20
294.569891
 11
189.741402
 21
294.569891
  0
LINE
  8
1
 62
7
  6
CONTINUOUS
 10
189.741402
 20
294.569891
 11
189.741402
 21
297.169891
  0
LINE
  8
1
 62
7
  6
CONTINUOUS
 10
189.741402
 20
297.169891
 11
187.141402
 21
297.169891
  0
LINE
  8
1
 62
7
  6
CONTINUOUS
 10
187.141402
 20
302.169891
 11
187.141402
 21
299.569891
  0
LINE
  8
1
 62
7
  6
CONTINUOUS
 10
187.141402
 20
299.569891
 11
189.741402
 21
299.569891
  0
LINE
  8
1
 62
7
  6
CONTINUOUS
 10
189.741402
 20
299.569891
 11
189.741402
 21
302.169891
  0
LINE
  8
1
 62
7
  6
CONTINUOUS
 10
189.741402
 20
302.169891
 11
187.141402
 21
302.169891
  0
CIRCLE
  8
1
 62
7
  6
CONTINUOUS
 10
188.441402
 20
305.869891
 40
0.500000
  0
CIRCLE
  8
1
 62
7
  6
CONTINUOUS
 10
188.441402
 20
309.869891
 40
0.500000
  0
CIRCLE
  8
1
 62
7
  6
CONTINUOUS
 10
188.441402
 20
313.869891
 40
0.500000
  0
LINE
  8
1
 62
7
  6
CONTINUOUS
 10
185.441402
 20
323.369891
 11
185.441402
 21
291.369891
  0
LINE
  8
1
 62
7
  6
CONTINUOUS
 10
185.441402
 20
291.369891
 11
191.441402
 21
291.369891
  0
LINE
  8
1
 62
7
  6
CONTINUOUS
 10
191.441402
 20
291.369891
 11
191.441402
 21
323.369891
  0
LINE
  8
1
 62
7
  6
CONTINUOUS
 10
191.441402
 20
323.369891
 11
185.441402
 21
323.369891
  0
LINE
  8
1
 62
7
  6
CONTINUOUS
 10
185.241402
 20
291.969891
 11
185.241402
 21
316.969891
  0
LINE
  8
1
 62
7
  6
CONTINUOUS
 10
179.641402
 20
291.969891
 11
185.241402
 21
291.969891
  0
LINE
  8
1
 62
7
  6
CONTINUOUS
 10
179.641402
 20
316.969891
 11
179.641402
 21
291.969891
  0
LINE
  8
1
 62
7
  6
CONTINUOUS
 10
185.048945
 20
322.589294
 11
185.048945
 21
317.569891
  0
LINE
  8
1
 62
7
  6
CONTINUOUS
 10
179.824473
 20
317.569891
 11
185.048945
 21
317.569891
  0
LINE
  8
1
 62
7
  6
CONTINUOUS
 10
179.824473
 20
322.589294
 11
179.824473
 21
317.569891
  0
LINE
  8
1
 62
7
  6
CONTINUOUS
 10
179.824473
 20
322.589294
 11
185.048945
 21
322.589294
  0
LINE
  8
1
 62
7
  6
CONTINUOUS
 10
181.934670
 20
317.369891
 11
181.658548
 21
317.569716
  0
LINE
  8
1
 62
7
  6
CONTINUOUS
 10
183.039156
 20
317.369891
 11
183.290176
 21
317.569891
  0
LINE
  8
1
 62
7
  6
CONTINUOUS
 10
181.934670
 20
317.369891
 11
183.039156
 21
317.369891
  0
LINE
  8
1
 62
7
  6
CONTINUOUS
 10
179.641402
 20
316.969891
 11
185.241402
 21
316.969891
  0
LINE
  8
1
 62
7
  6
CONTINUOUS
 10
181.141402
 20
297.169891
 11
181.141402
 21
294.569891
  0
LINE
  8
1
 62
7
  6
CONTINUOUS
 10
181.141402
 20
294.569891
 11
183.741402
 21
294.569891
  0
LINE
  8
1
 62
7
  6
CONTINUOUS
 10
183.741402
 20
294.569891
 11
183.741402
 21
297.169891
  0
LINE
  8
1
 62
7
  6
CONTINUOUS
 10
183.741402
 20
297.169891
 11
181.141402
 21
297.169891
  0
LINE
  8
1
 62
7
  6
CONTINUOUS
 10
181.141402
 20
302.169891
 11
181.141402
 21
299.569891
  0
LINE
  8
1
 62
7
  6
CONTINUOUS
 10
181.141402
 20
299.569891
 11
183.741402
 21
299.569891
  0
LINE
  8
1
 62
7
  6
CONTINUOUS
 10
183.741402
 20
299.569891
 11
183.741402
 21
302.169891
  0
LINE
  8
1
 62
7
  6
CONTINUOUS
 10
183.741402
 20
302.169891
 11
181.141402
 21
302.169891
  0
CIRCLE
  8
1
 62
7
  6
CONTINUOUS
 10
182.441402
 20
305.869891
 40
0.500000
  0
CIRCLE
  8
1
 62
7
  6
CONTINUOUS
 10
182.441402
 20
309.869891
 40
0.500000
  0
CIRCLE
  8
1
 62
7
  6
CONTINUOUS
 10
182.441402
 20
313.869891
 40
0.500000
  0
LINE
  8
1
 62
7
  6
CONTINUOUS
 10
179.441402
 20
323.369891
 11
179.441402
 21
291.369891
  0
LINE
  8
1
 62
7
  6
CONTINUOUS
 10
179.441402
 20
291.369891
 11
185.441402
 21
291.369891
  0
LINE
  8
1
 62
7
  6
CONTINUOUS
 10
185.441402
 20
291.369891
 11
185.441402
 21
323.369891
  0
LINE
  8
1
 62
7
  6
CONTINUOUS
 10
185.441402
 20
323.369891
 11
179.441402
 21
323.369891
  0
LINE
  8
1
 62
7
  6
CONTINUOUS
 10
179.441402
 20
322.993372
 11
185.448945
 21
322.993372
  0
LINE
  8
1
 62
7
  6
CONTINUOUS
 10
179.441402
 20
291.769891
 11
185.441402
 21
291.769891
  0
LINE
  8
1
 62
7
  6
CONTINUOUS
 10
203.424473
 20
322.993372
 11
209.441402
 21
322.993372
  0
LINE
  8
1
 62
7
  6
CONTINUOUS
 10
209.791402
 20
285.249891
 11
178.891402
 21
285.249891
  0
LINE
  8
1
 62
7
  6
CONTINUOUS
 10
209.791402
 20
279.449891
 11
209.791402
 21
285.249891
  0
LINE
  8
1
 62
7
  6
CONTINUOUS
 10
178.891402
 20
279.449891
 11
209.791402
 21
279.449891
  0
LINE
  8
1
 62
7
  6
CONTINUOUS
 10
178.891402
 20
285.249891
 11
178.891402
 21
279.449891
  0
CIRCLE
  8
1
 62
7
  6
CONTINUOUS
 10
182.814883
 20
282.249891
 40
0.200000
  0
CIRCLE
  8
1
 62
7
  6
CONTINUOUS
 10
181.814883
 20
281.249891
 40
0.200000
  0
CIRCLE
  8
1
 62
7
  6
CONTINUOUS
 10
180.814883
 20
282.249891
 40
0.200000
  0
CIRCLE
  8
1
 62
7
  6
CONTINUOUS
 10
181.814883
 20
283.249891
 40
0.200000
  0
CIRCLE
  8
1
 62
7
  6
CONTINUOUS
 10
181.814883
 20
282.249891
 40
0.200000
  0
LINE
  8
1
 62
7
  6
CONTINUOUS
 10
209.914883
 20
285.049891
 11
184.914883
 21
285.049891
  0
LINE
  8
1
 62
7
  6
CONTINUOUS
 10
209.914883
 20
279.449891
 11
209.914883
 21
285.049891
  0
LINE
  8
1
 62
7
  6
CONTINUOUS
 10
184.914883
 20
279.449891
 11
209.914883
 21
279.449891
  0
LINE
  8
1
 62
7
  6
CONTINUOUS
 10
179.295480
 20
284.857434
 11
184.314883
 21
284.857434
  0
LINE
  8
1
 62
7
  6
CONTINUOUS
 10
184.314883
 20
279.632962
 11
184.314883
 21
284.857434
  0
LINE
  8
1
 62
7
  6
CONTINUOUS
 10
179.295480
 20
279.632962
 11
184.314883
 21
279.632962
  0
LINE
  8
1
 62
7
  6
CONTINUOUS
 10
179.295480
 20
279.632962
 11
179.295480
 21
284.857434
  0
LINE
  8
1
 62
7
  6
CONTINUOUS
 10
184.914883
 20
279.449891
 11
184.914883
 21
285.049891
  0
LINE
  8
1
 62
7
  6
CONTINUOUS
 10
204.714883
 20
280.949891
 11
207.314883
 21
280.949891
  0
LINE
  8
1
 62
7
  6
CONTINUOUS
 10
207.314883
 20
280.949891
 11
207.314883
 21
283.549891
  0
LINE
  8
1
 62
7
  6
CONTINUOUS
 10
207.314883
 20
283.549891
 11
204.714883
 21
283.549891
  0
LINE
  8
1
 62
7
  6
CONTINUOUS
 10
204.714883
 20
283.549891
 11
204.714883
 21
280.949891
  0
LINE
  8
1
 62
7
  6
CONTINUOUS
 10
199.714883
 20
280.949891
 11
202.314883
 21
280.949891
  0
LINE
  8
1
 62
7
  6
CONTINUOUS
 10
202.314883
 20
280.949891
 11
202.314883
 21
283.549891
  0
LINE
  8
1
 62
7
  6
CONTINUOUS
 10
202.314883
 20
283.549891
 11
199.714883
 21
283.549891
  0
LINE
  8
1
 62
7
  6
CONTINUOUS
 10
199.714883
 20
283.549891
 11
199.714883
 21
280.949891
  0
CIRCLE
  8
1
 62
7
  6
CONTINUOUS
 10
196.014883
 20
282.249891
 40
0.500000
  0
CIRCLE
  8
1
 62
7
  6
CONTINUOUS
 10
192.014883
 20
282.249891
 40
0.500000
  0
CIRCLE
  8
1
 62
7
  6
CONTINUOUS
 10
188.014883
 20
282.249891
 40
0.500000
  0
LINE
  8
1
 62
7
  6
CONTINUOUS
 10
178.514883
 20
279.249891
 11
210.514883
 21
279.249891
  0
LINE
  8
1
 62
7
  6
CONTINUOUS
 10
210.514883
 20
279.249891
 11
210.514883
 21
285.249891
  0
LINE
  8
1
 62
7
  6
CONTINUOUS
 10
210.514883
 20
285.249891
 11
178.514883
 21
285.249891
  0
LINE
  8
1
 62
7
  6
CONTINUOUS
 10
178.514883
 20
285.249891
 11
178.514883
 21
279.249891
  0
LINE
  8
1
 62
7
  6
CONTINUOUS
 10
178.891402
 20
279.249891
 11
178.891402
 21
285.249891
  0
LINE
  8
1
 62
7
  6
CONTINUOUS
 10
210.114883
 20
279.249891
 11
210.114883
 21
285.249891
  0
TEXT
  8
15
 62
96
  6
DIVIDE
 10
714.201719
 20
535.649077
 40
6.001769
 41
0.833333
  1
０５０４１７６
  7
KANJI
 50
0.000000
 51
0.000000
  0
TEXT
  8
15
 62
96
  6
CONTINUOUS
 10
709.779597
 20
121.540798
 40
6.001769
 41
0.566667
  1
G13006-07-05Z08
  7
KANJI
 50
0.000000
 51
0.000000
  0
TEXT
  8
15
 62
96
  6
CONTINUOUS
 10
663.585754
 20
105.022118
 40
10.002949
 41
0.900000
  1
ＳＵＢ－Ｌ５０ＮＡ
  7
KANJI
 50
0.000000
 51
0.000000
  0
LINE
  8
1
 62
7
  6
DASHDOT
 10
487.441402
 20
491.361892
 11
487.441402
 21
483.361891
  0
LINE
  8
1
 62
7
  6
DASHDOT
 10
375.441402
 20
491.361892
 11
375.441402
 21
483.361891
  0
LINE
  8
1
 62
7
  6
DASHDOT
 10
487.441402
 20
275.361892
 11
487.441402
 21
267.361891
  0
LINE
  8
1
 62
7
  6
DASHDOT
 10
375.441402
 20
275.361892
 11
375.441402
 21
267.361891
  0
TEXT
  8
15
 62
96
  6
CONTINUOUS
 10
654.568681
 20
56.526660
 40
7.000000
 41
0.500000
  1
G13006-07-07905
  7
KANJI
 50
0.000000
 51
0.000000
  0
LINE
  8
1
 62
7
  6
CONTINUOUS
 10
442.138794
 20
272.361891
 11
448.509670
 21
294.228290
  0
LINE
  8
1
 62
7
  6
CONTINUOUS
 10
448.509670
 20
294.228290
 11
467.309670
 21
294.228290
  0
TEXT
  8
1
 62
7
  6
CONTINUOUS
 10
448.509670
 20
294.228290
 40
6.000000
 41
0.944444
  1
通線孔
  7
KANJI
 50
0.000000
 51
0.000000
  0
LINE
  8
1
 62
7
  6
CONTINUOUS
 10
442.138794
 20
272.361891
 11
442.225616
 21
276.360948
  0
LINE
  8
1
 62
7
  6
CONTINUOUS
 10
442.138794
 20
272.361891
 11
444.213513
 21
275.781766
  0
TEXT
  8
15
 62
96
  6
CONTINUOUS
 10
386.140130
 20
37.869057
 40
6.000000
 41
0.944444
  1
＊　記載されている会社名、製品名は、登録商標または商標です。
  7
KANJI
 50
0.000000
 51
0.000000
  0
TEXT
  8
15
 62
96
  6
DIVIDE
 10
720.203488
 20
502.639345
 40
6.001769
 41
0.595238
  1
SPCC ｔ1.6
  7
KANJI
 50
0.000000
 51
0.000000
  0
TEXT
  8
15
 62
96
  6
DIVIDE
 10
685.689302
 20
480.569715
 40
6.001769
 41
0.756881
  1
マンセル　2.5Ｙ 9/1　近似色　半艶
  7
KANJI
 50
0.000000
 51
0.000000
  0
LINE
  8
1
 62
7
  6
DASHDOT
 10
359.600556
 20
379.361891
 11
499.594657
 21
379.361891
  0
LINE
  8
1
 62
7
  6
CONTINUOUS
 10
119.441402
 20
519.361891
 11
239.441402
 21
519.361891
  0
LINE
  8
1
 62
7
  6
CONTINUOUS
 10
119.441402
 20
522.161891
 11
119.441402
 21
502.161891
  0
LINE
  8
1
 62
7
  6
CONTINUOUS
 10
239.441402
 20
522.161891
 11
239.441402
 21
502.161891
  0
LINE
  8
1
 62
7
  6
CONTINUOUS
 10
119.441402
 20
519.361891
 11
124.077846
 21
520.604222
  0
LINE
  8
1
 62
7
  6
CONTINUOUS
 10
119.441402
 20
519.361891
 11
124.077846
 21
518.119559
  0
LINE
  8
1
 62
7
  6
CONTINUOUS
 10
239.441402
 20
519.361891
 11
234.804958
 21
518.119559
  0
LINE
  8
1
 62
7
  6
CONTINUOUS
 10
239.441402
 20
519.361891
 11
234.804958
 21
520.604222
  0
TEXT
  8
1
 62
7
  6
CONTINUOUS
 10
174.541402
 20
520.361891
 40
6.000000
 41
0.566667
  1
600
  7
KANJI
 50
0.000000
 51
0.000000
  0
LINE
  8
1
 62
7
  6
CONTINUOUS
 10
259.441402
 20
259.361891
 11
259.441402
 21
499.361891
  0
LINE
  8
1
 62
7
  6
CONTINUOUS
 10
262.241402
 20
259.361891
 11
242.241402
 21
259.361891
  0
LINE
  8
1
 62
7
  6
CONTINUOUS
 10
262.241402
 20
499.361891
 11
242.241402
 21
499.361891
  0
LINE
  8
1
 62
7
  6
CONTINUOUS
 10
259.441402
 20
259.361891
 11
258.199070
 21
263.998335
  0
LINE
  8
1
 62
7
  6
CONTINUOUS
 10
259.441402
 20
259.361891
 11
260.683733
 21
263.998335
  0
LINE
  8
1
 62
7
  6
CONTINUOUS
 10
259.441402
 20
499.361891
 11
260.683733
 21
494.725447
  0
LINE
  8
1
 62
7
  6
CONTINUOUS
 10
259.441402
 20
499.361891
 11
258.199070
 21
494.725447
  0
TEXT
  8
1
 62
7
  6
CONTINUOUS
 10
258.441402
 20
372.761890
 40
6.000000
 41
0.566667
  1
1200
  7
KANJI
 50
90.000000
 51
0.000000
  0
LINE
  8
1
 62
7
  6
CONTINUOUS
 10
289.441402
 20
519.361891
 11
321.441402
 21
519.361891
  0
LINE
  8
1
 62
7
  6
CONTINUOUS
 10
289.441402
 20
522.161891
 11
289.441402
 21
502.161891
  0
LINE
  8
1
 62
7
  6
CONTINUOUS
 10
321.441402
 20
522.161891
 11
321.441402
 21
502.161891
  0
LINE
  8
1
 62
7
  6
CONTINUOUS
 10
289.441402
 20
519.361891
 11
294.077846
 21
520.604222
  0
LINE
  8
1
 62
7
  6
CONTINUOUS
 10
289.441402
 20
519.361891
 11
294.077846
 21
518.119559
  0
LINE
  8
1
 62
7
  6
CONTINUOUS
 10
321.441402
 20
519.361891
 11
316.804958
 21
518.119559
  0
LINE
  8
1
 62
7
  6
CONTINUOUS
 10
321.441402
 20
519.361891
 11
316.804958
 21
520.604222
  0
TEXT
  8
1
 62
7
  6
CONTINUOUS
 10
300.541401
 20
520.361891
 40
6.000000
 41
0.566667
  1
160
  7
KANJI
 50
0.000000
 51
0.000000
  0
LINE
  8
1
 62
7
  6
CONTINUOUS
 10
406.441402
 20
239.361891
 11
456.441402
 21
239.361891
  0
LINE
  8
1
 62
7
  6
CONTINUOUS
 10
406.441402
 20
237.761891
 11
406.441402
 21
262.761891
  0
LINE
  8
1
 62
7
  6
CONTINUOUS
 10
456.441402
 20
237.761891
 11
456.441402
 21
262.761891
  0
LINE
  8
1
 62
7
  6
CONTINUOUS
 10
406.441402
 20
239.361891
 11
411.077846
 21
240.604222
  0
LINE
  8
1
 62
7
  6
CONTINUOUS
 10
406.441402
 20
239.361891
 11
411.077846
 21
238.119559
  0
LINE
  8
1
 62
7
  6
CONTINUOUS
 10
456.441402
 20
239.361891
 11
451.804958
 21
238.119559
  0
LINE
  8
1
 62
7
  6
CONTINUOUS
 10
456.441402
 20
239.361891
 11
451.804958
 21
240.604222
  0
TEXT
  8
1
 62
7
  6
CONTINUOUS
 10
426.541402
 20
240.361891
 40
6.000000
 41
0.566667
  1
250
  7
KANJI
 50
0.000000
 51
0.000000
  0
LINE
  8
1
 62
7
  6
CONTINUOUS
 10
472.713841
 20
286.361891
 11
472.713841
 21
254.361891
  0
LINE
  8
1
 62
7
  6
CONTINUOUS
 10
476.713841
 20
272.361891
 11
460.441402
 21
272.361891
  0
LINE
  8
1
 62
7
  6
CONTINUOUS
 10
476.713841
 20
264.361891
 11
460.175769
 21
264.361891
  0
LINE
  8
1
 62
7
  6
CONTINUOUS
 10
472.713841
 20
272.361891
 11
471.471509
 21
276.998335
  0
LINE
  8
1
 62
7
  6
CONTINUOUS
 10
472.713841
 20
272.361891
 11
473.956172
 21
276.998335
  0
LINE
  8
1
 62
7
  6
CONTINUOUS
 10
472.713841
 20
264.361891
 11
473.956172
 21
259.725447
  0
LINE
  8
1
 62
7
  6
CONTINUOUS
 10
472.713841
 20
264.361891
 11
471.471509
 21
259.725447
  0
TEXT
  8
1
 62
7
  6
CONTINUOUS
 10
471.713841
 20
277.196288
 40
6.000000
 41
0.566667
  1
40
  7
KANJI
 50
90.000000
 51
0.000000
  0
LINE
  8
1
 62
7
  6
CONTINUOUS
 10
390.386957
 20
282.361891
 11
390.386957
 21
249.361891
  0
LINE
  8
1
 62
7
  6
CONTINUOUS
 10
386.386957
 20
268.361891
 11
399.387396
 21
268.361891
  0
LINE
  8
1
 62
7
  6
CONTINUOUS
 10
386.386957
 20
259.361891
 11
427.441402
 21
259.361891
  0
LINE
  8
1
 62
7
  6
CONTINUOUS
 10
390.386957
 20
268.361891
 11
389.144626
 21
272.998335
  0
LINE
  8
1
 62
7
  6
CONTINUOUS
 10
390.386957
 20
268.361891
 11
391.629289
 21
272.998335
  0
LINE
  8
1
 62
7
  6
CONTINUOUS
 10
390.386957
 20
259.361891
 11
391.629289
 21
254.725447
  0
LINE
  8
1
 62
7
  6
CONTINUOUS
 10
390.386957
 20
259.361891
 11
389.144626
 21
254.725447
  0
TEXT
  8
1
 62
7
  6
CONTINUOUS
 10
389.386957
 20
273.925021
 40
6.000000
 41
0.566667
  1
45
  7
KANJI
 50
90.000000
 51
0.000000
  0
LINE
  8
1
 62
7
  6
CONTINUOUS
 10
375.441402
 20
519.361891
 11
487.441402
 21
519.361891
  0
LINE
  8
1
 62
7
  6
CONTINUOUS
 10
375.441402
 20
521.361891
 11
375.441402
 21
493.361892
  0
LINE
  8
1
 62
7
  6
CONTINUOUS
 10
487.441402
 20
521.361891
 11
487.441402
 21
493.361892
  0
LINE
  8
1
 62
7
  6
CONTINUOUS
 10
375.441402
 20
519.361891
 11
380.077846
 21
520.604222
  0
LINE
  8
1
 62
7
  6
CONTINUOUS
 10
375.441402
 20
519.361891
 11
380.077846
 21
518.119559
  0
LINE
  8
1
 62
7
  6
CONTINUOUS
 10
487.441402
 20
519.361891
 11
482.804958
 21
518.119559
  0
LINE
  8
1
 62
7
  6
CONTINUOUS
 10
487.441402
 20
519.361891
 11
482.804958
 21
520.604222
  0
TEXT
  8
1
 62
7
  6
CONTINUOUS
 10
426.541402
 20
520.361891
 40
6.000000
 41
0.566667
  1
560
  7
KANJI
 50
0.000000
 51
0.000000
  0
LINE
  8
1
 62
7
  6
DASHDOT
 10
372.108443
 20
271.361891
 11
378.695014
 21
271.361891
  0
LINE
  8
1
 62
7
  6
DASHDOT
 10
372.639469
 20
487.361891
 11
379.441402
 21
487.361891
  0
LINE
  8
1
 62
7
  6
DASHDOT
 10
483.745159
 20
487.361891
 11
490.841402
 21
487.361891
  0
LINE
  8
1
 62
7
  6
DASHDOT
 10
483.745159
 20
271.361891
 11
490.841402
 21
271.361891
  0
LINE
  8
1
 62
7
  6
CONTINUOUS
 10
511.441402
 20
487.361891
 11
511.441402
 21
271.361891
  0
LINE
  8
1
 62
7
  6
CONTINUOUS
 10
513.041402
 20
487.361891
 11
493.841402
 21
487.361891
  0
LINE
  8
1
 62
7
  6
CONTINUOUS
 10
513.041402
 20
271.361891
 11
493.841402
 21
271.361891
  0
LINE
  8
1
 62
7
  6
CONTINUOUS
 10
511.441402
 20
487.361891
 11
512.683733
 21
482.725447
  0
LINE
  8
1
 62
7
  6
CONTINUOUS
 10
511.441402
 20
487.361891
 11
510.199071
 21
482.725447
  0
LINE
  8
1
 62
7
  6
CONTINUOUS
 10
511.441402
 20
271.361891
 11
510.199071
 21
275.998335
  0
LINE
  8
1
 62
7
  6
CONTINUOUS
 10
511.441402
 20
271.361891
 11
512.683733
 21
275.998335
  0
TEXT
  8
1
 62
7
  6
CONTINUOUS
 10
510.441402
 20
372.761891
 40
6.000000
 41
0.566667
  1
1080
  7
KANJI
 50
90.000000
 51
0.000000
  0
TEXT
  8
15
 62
96
  6
DIVIDE
 10
690.194641
 20
513.642589
 40
6.001769
 41
0.707547
  1
SA16-612Ｃ（日東工業（株）製）
  7
KANJI
 50
0.000000
 51
0.000000
  0
LINE
  8
15
 62
96
  6
CONTINUOUS
 10
620.173997
 20
423.115900
 11
800.227081
 21
423.115900
  0
LINE
  8
15
 62
96
  6
CONTINUOUS
 10
620.173997
 20
434.119144
 11
800.227081
 21
434.119144
  0
LINE
  8
15
 62
96
  6
CONTINUOUS
 10
620.173997
 20
456.125632
 11
800.227081
 21
456.125632
  0
LINE
  8
15
 62
96
  6
CONTINUOUS
 10
620.173997
 20
445.122388
 11
800.227081
 21
445.122388
  0
TEXT
  8
15
 62
96
  6
DIVIDE
 10
636.178716
 20
447.623125
 40
6.001769
 41
0.833333
  1
重　量
  7
KANJI
 50
0.000000
 51
0.000000
  0
TEXT
  8
15
 62
96
  6
DIVIDE
 10
633.177831
 20
436.619881
 40
6.001769
 41
0.833333
  1
入力電源
  7
KANJI
 50
0.000000
 51
0.000000
  0
TEXT
  8
15
 62
96
  6
DIVIDE
 10
633.177831
 20
425.616637
 40
6.001769
 41
0.833333
  1
消費電力
  7
KANJI
 50
0.000000
 51
0.000000
  0
TEXT
  8
15
 62
96
  6
CONTINUOUS
 10
636.178716
 20
414.613393
 40
6.001769
 41
0.833333
  1
ブザー
  7
KANJI
 50
0.000000
 51
0.000000
  0
TEXT
  8
15
 62
96
  6
DIVIDE
 10
705.195053
 20
436.556739
 40
6.001769
 41
0.833333
  1
電気錠制御盤から供給
  7
KANJI
 50
0.000000
 51
0.000000
  0
TEXT
  8
15
 62
96
  6
DIVIDE
 10
726.269546
 20
425.616683
 40
6.001769
 41
0.833333
  1
－－－
  7
KANJI
 50
0.000000
 51
0.000000
  0
TEXT
  8
15
 62
96
  6
CONTINUOUS
 10
699.197295
 20
414.613393
 40
6.001769
 41
0.750000
  1
電子ブザー　ピー音　80dB
  7
KANJI
 50
0.000000
 51
0.000000
  0
LINE
  8
15
 62
96
  6
CONTINUOUS
 10
620.173997
 20
412.112656
 11
800.227081
 21
412.112656
  0
LINE
  8
15
 62
96
  6
CONTINUOUS
 10
620.191780
 20
379.102924
 11
800.230938
 21
379.102924
  0
LINE
  8
15
 62
96
  6
CONTINUOUS
 10
620.173997
 20
390.106168
 11
800.227600
 21
390.106168
  0
LINE
  8
15
 62
96
  6
CONTINUOUS
 10
620.191780
 20
368.099680
 11
800.230938
 21
368.099680
  0
TEXT
  8
15
 62
96
  6
CONTINUOUS
 10
627.399994
 20
392.606905
 40
6.001769
 41
0.833333
  1
開扉表示入力
  7
KANJI
 50
0.000000
 51
0.000000
  0
TEXT
  8
15
 62
96
  6
CONTINUOUS
 10
626.151622
 20
381.644898
 40
6.000000
 41
0.944444
  1
解錠表示入力
  7
KANJI
 50
0.000000
 51
0.000000
  0
TEXT
  8
15
 62
96
  6
CONTINUOUS
 10
626.151622
 20
370.641654
 40
6.000000
 41
0.944444
  1
警報表示入力
  7
KANJI
 50
0.000000
 51
0.000000
  0
TEXT
  8
15
 62
96
  6
CONTINUOUS
 10
786.668762
 20
392.840171
 40
6.001769
 41
0.625000
  1
50点
  7
KANJI
 50
0.000000
 51
0.000000
  0
TEXT
  8
15
 62
96
  6
DIVIDE
 10
726.313146
 20
447.697339
 40
6.001769
 41
0.576923
  1
約50kg
  7
KANJI
 50
0.000000
 51
0.000000
  0
TEXT
  8
15
 62
96
  6
CONTINUOUS
 10
652.140081
 20
403.598093
 40
6.001769
 41
0.755814
  1
外部入力　：接点容量　DC24Ｖ　0.1Ａ以下
  7
KANJI
 50
0.000000
 51
0.000000
  0
TEXT
  8
15
 62
96
  6
CONTINUOUS
 10
786.668762
 20
381.836927
 40
6.001769
 41
0.625000
  1
50点
  7
KANJI
 50
0.000000
 51
0.000000
  0
TEXT
  8
15
 62
96
  6
CONTINUOUS
 10
786.668762
 20
370.833683
 40
6.001769
 41
0.625000
  1
50点
  7
KANJI
 50
0.000000
 51
0.000000
  0
TEXT
  8
15
 62
96
  6
CONTINUOUS
 10
694.419753
 20
392.606905
 40
6.001769
 41
0.670732
  1
有電圧DC24Ｖ　25mA以下
  7
KANJI
 50
0.000000
 51
0.000000
  0
TEXT
  8
15
 62
96
  6
CONTINUOUS
 10
694.419753
 20
381.603661
 40
6.001769
 41
0.670732
  1
有電圧DC24Ｖ　25mA以下
  7
KANJI
 50
0.000000
 51
0.000000
  0
TEXT
  8
15
 62
96
  6
CONTINUOUS
 10
694.419753
 20
370.600417
 40
6.001769
 41
0.670732
  1
有電圧DC24Ｖ　25mA以下
  7
KANJI
 50
0.000000
 51
0.000000
  0
LINE
  8
15
 62
96
  6
CONTINUOUS
 10
620.191780
 20
313.083460
 11
800.230938
 21
313.083460
  0
LINE
  8
15
 62
96
  6
CONTINUOUS
 10
620.191780
 20
302.080216
 11
800.230938
 21
302.080216
  0
LINE
  8
15
 62
96
  6
CONTINUOUS
 10
620.191780
 20
291.076972
 11
800.230938
 21
291.076972
  0
TEXT
  8
15
 62
96
  6
CONTINUOUS
 10
621.351622
 20
315.625434
 40
6.000000
 41
0.888889
  1
非常解錠表示入力
  7
KANJI
 50
0.000000
 51
0.000000
  0
TEXT
  8
15
 62
96
  6
CONTINUOUS
 10
621.351622
 20
304.622189
 40
6.000000
 41
0.888889
  1
一斉解錠表示入力
  7
KANJI
 50
0.000000
 51
0.000000
  0
TEXT
  8
15
 62
96
  6
CONTINUOUS
 10
786.668762
 20
315.817463
 40
6.001769
 41
0.833333
  1
１点
  7
KANJI
 50
0.000000
 51
0.000000
  0
TEXT
  8
15
 62
96
  6
CONTINUOUS
 10
786.668762
 20
304.814219
 40
6.001769
 41
0.833333
  1
１点
  7
KANJI
 50
0.000000
 51
0.000000
  0
TEXT
  8
15
 62
96
  6
CONTINUOUS
 10
786.668762
 20
293.810975
 40
6.001769
 41
0.833333
  1
１点
  7
KANJI
 50
0.000000
 51
0.000000
  0
TEXT
  8
15
 62
96
  6
CONTINUOUS
 10
623.891748
 20
238.561489
 40
6.001769
 41
0.833333
  1
一回解錠釦出力
  7
KANJI
 50
0.000000
 51
0.000000
  0
TEXT
  8
15
 62
96
  6
CONTINUOUS
 10
623.891748
 20
227.558245
 40
6.001769
 41
0.833333
  1
リセット釦出力
  7
KANJI
 50
0.000000
 51
0.000000
  0
TEXT
  8
15
 62
96
  6
CONTINUOUS
 10
623.891748
 20
216.555001
 40
6.001769
 41
0.833333
  1
一斉解錠釦出力
  7
KANJI
 50
0.000000
 51
0.000000
  0
TEXT
  8
15
 62
96
  6
CONTINUOUS
 10
623.891748
 20
249.564733
 40
6.001769
 41
0.833333
  1
連続解錠釦出力
  7
KANJI
 50
0.000000
 51
0.000000
  0
LINE
  8
15
 62
96
  6
CONTINUOUS
 10
620.173997
 20
269.070484
 11
800.230938
 21
269.070484
  0
LINE
  8
15
 62
96
  6
CONTINUOUS
 10
620.191780
 20
269.070484
 11
800.230938
 21
269.070484
  0
LINE
  8
15
 62
96
  6
CONTINUOUS
 10
620.191780
 20
269.070484
 11
800.230938
 21
269.070484
  0
LINE
  8
15
 62
96
  6
CONTINUOUS
 10
620.173997
 20
236.060752
 11
800.227600
 21
236.060752
  0
LINE
  8
15
 62
96
  6
CONTINUOUS
 10
620.173997
 20
247.063996
 11
800.227600
 21
247.063996
  0
LINE
  8
15
 62
96
  6
CONTINUOUS
 10
620.173997
 20
225.057508
 11
800.227600
 21
225.057508
  0
LINE
  8
15
 62
96
  6
CONTINUOUS
 10
620.173997
 20
214.054264
 11
800.227600
 21
214.054264
  0
LINE
  8
15
 62
96
  6
CONTINUOUS
 10
620.173997
 20
258.067240
 11
800.227600
 21
258.067240
  0
TEXT
  8
15
 62
96
  6
CONTINUOUS
 10
651.916668
 20
260.555921
 40
6.001769
 41
0.755814
  1
外部出力　：接点容量　DC24Ｖ　0.3Ａ以下
  7
KANJI
 50
0.000000
 51
0.000000
  0
TEXT
  8
15
 62
96
  6
CONTINUOUS
 10
700.421522
 20
249.564733
 40
6.001769
 41
0.833333
  1
無電圧ａ接点　瞬時
  7
KANJI
 50
0.000000
 51
0.000000
  0
TEXT
  8
15
 62
96
  6
CONTINUOUS
 10
700.421522
 20
238.561489
 40
6.001769
 41
0.833333
  1
無電圧ａ接点　瞬時
  7
KANJI
 50
0.000000
 51
0.000000
  0
TEXT
  8
15
 62
96
  6
CONTINUOUS
 10
700.421522
 20
227.558245
 40
6.001769
 41
0.833333
  1
無電圧ａ接点　瞬時
  7
KANJI
 50
0.000000
 51
0.000000
  0
TEXT
  8
15
 62
96
  6
CONTINUOUS
 10
700.421522
 20
216.555001
 40
6.001769
 41
0.833333
  1
無電圧ａ接点　瞬時
  7
KANJI
 50
0.000000
 51
0.000000
  0
TEXT
  8
15
 62
96
  6
CONTINUOUS
 10
786.668762
 20
249.797999
 40
6.001769
 41
0.625000
  1
50点
  7
KANJI
 50
0.000000
 51
0.000000
  0
TEXT
  8
15
 62
96
  6
CONTINUOUS
 10
786.668762
 20
238.794755
 40
6.001769
 41
0.625000
  1
50点
  7
KANJI
 50
0.000000
 51
0.000000
  0
TEXT
  8
15
 62
96
  6
CONTINUOUS
 10
786.668762
 20
227.791511
 40
6.001769
 41
0.833333
  1
１点
  7
KANJI
 50
0.000000
 51
0.000000
  0
TEXT
  8
15
 62
96
  6
CONTINUOUS
 10
786.668762
 20
216.788267
 40
6.001769
 41
0.833333
  1
１点
  7
KANJI
 50
0.000000
 51
0.000000
  0
LINE
  8
15
 62
96
  6
CONTINUOUS
 10
620.173997
 20
192.047776
 11
800.227600
 21
192.047776
  0
TEXT
  8
15
 62
96
  6
CONTINUOUS
 10
683.200058
 20
183.545269
 40
6.001769
 41
0.833333
  1
※換気モード仕様時
  7
KANJI
 50
0.000000
 51
0.000000
  0
LINE
  8
15
 62
96
  6
CONTINUOUS
 10
669.905314
 20
258.067240
 11
669.905314
 21
192.047776
  0
LINE
  8
15
 62
96
  6
CONTINUOUS
 10
783.938934
 20
258.067240
 11
783.938934
 21
192.047776
  0
TEXT
  8
15
 62
96
  6
CONTINUOUS
 10
621.401622
 20
277.614079
 40
5.000000
 41
0.805085
  1
換気/全開表示入力※
  7
KANJI
 50
0.000000
 51
0.000000
  0
TEXT
  8
15
 62
96
  6
CONTINUOUS
 10
700.421522
 20
200.050135
 40
6.001769
 41
0.833333
  1
無電圧ａ接点　瞬時
  7
KANJI
 50
0.000000
 51
0.000000
  0
TEXT
  8
15
 62
96
  6
CONTINUOUS
 10
621.147941
 20
200.551020
 40
5.000000
 41
0.805085
  1
換気/施解錠釦出力※
  7
KANJI
 50
0.000000
 51
0.000000
  0
TEXT
  8
15
 62
96
  6
CONTINUOUS
 10
786.668762
 20
281.807731
 40
6.001769
 41
0.833333
  1
最大
  7
KANJI
 50
0.000000
 51
0.000000
  0
TEXT
  8
15
 62
96
  6
CONTINUOUS
 10
786.668762
 20
204.785023
 40
6.001769
 41
0.833333
  1
最大
  7
KANJI
 50
0.000000
 51
0.000000
  0
TEXT
  8
15
 62
96
  6
CONTINUOUS
 10
786.668762
 20
272.804487
 40
6.001769
 41
0.625000
  1
50点
  7
KANJI
 50
0.000000
 51
0.000000
  0
TEXT
  8
15
 62
96
  6
CONTINUOUS
 10
786.668762
 20
195.781779
 40
6.001769
 41
0.625000
  1
50点
  7
KANJI
 50
0.000000
 51
0.000000
  0
TEXT
  8
15
 62
96
  6
CONTINUOUS
 10
694.419753
 20
315.584197
 40
6.001769
 41
0.670732
  1
有電圧DC24Ｖ　25mA以下
  7
KANJI
 50
0.000000
 51
0.000000
  0
TEXT
  8
15
 62
96
  6
CONTINUOUS
 10
694.419753
 20
304.580953
 40
6.001769
 41
0.670732
  1
有電圧DC24Ｖ　25mA以下
  7
KANJI
 50
0.000000
 51
0.000000
  0
TEXT
  8
15
 62
96
  6
CONTINUOUS
 10
694.419753
 20
293.577709
 40
6.001769
 41
0.670732
  1
有電圧DC24Ｖ　25mA以下
  7
KANJI
 50
0.000000
 51
0.000000
  0
TEXT
  8
15
 62
96
  6
CONTINUOUS
 10
694.419753
 20
277.072843
 40
6.001769
 41
0.670732
  1
有電圧DC24Ｖ　25mA以下
  7
KANJI
 50
0.000000
 51
0.000000
  0
LINE
  8
15
 62
96
  6
CONTINUOUS
 10
620.191780
 20
324.086704
 11
800.230938
 21
324.086704
  0
LINE
  8
15
 62
96
  6
CONTINUOUS
 10
645.055769
 20
368.099680
 11
645.055769
 21
324.086704
  0
LINE
  8
15
 62
96
  6
CONTINUOUS
 10
645.055769
 20
346.093192
 11
800.245382
 21
346.093192
  0
TEXT
  8
15
 62
96
  6
CONTINUOUS
 10
786.683206
 20
354.328817
 40
6.001769
 41
0.833333
  1
１点
  7
KANJI
 50
0.000000
 51
0.000000
  0
TEXT
  8
15
 62
96
  6
CONTINUOUS
 10
786.683206
 20
332.322329
 40
6.001769
 41
0.833333
  1
１点
  7
KANJI
 50
0.000000
 51
0.000000
  0
TEXT
  8
15
 62
96
  6
CONTINUOUS
 10
709.438620
 20
354.095551
 40
6.001769
 41
0.681818
  1
有電圧DC24Ｖ
  7
KANJI
 50
0.000000
 51
0.000000
  0
TEXT
  8
15
 62
96
  6
CONTINUOUS
 10
709.438620
 20
332.089063
 40
6.001769
 41
0.681818
  1
有電圧DC24Ｖ
  7
KANJI
 50
0.000000
 51
0.000000
  0
TEXT
  8
15
 62
96
  6
CONTINUOUS
 10
648.080541
 20
349.594814
 40
6.000000
 41
0.944444
  1
電池時
  7
KANJI
 50
0.000000
 51
0.000000
  0
TEXT
  8
15
 62
96
  6
CONTINUOUS
 10
648.080541
 20
336.591570
 40
6.000000
 41
0.944444
  1
鉛電池
  7
KANJI
 50
0.000000
 51
0.000000
  0
TEXT
  8
15
 62
96
  6
CONTINUOUS
 10
648.080541
 20
327.588326
 40
6.000000
 41
0.944444
  1
動作時
  7
KANJI
 50
0.000000
 51
0.000000
  0
TEXT
  8
15
 62
96
  6
CONTINUOUS
 10
648.080541
 20
358.598058
 40
6.000000
 41
0.944444
  1
商　用
  7
KANJI
 50
0.000000
 51
0.000000
  0
TEXT
  8
15
 62
96
  6
CONTINUOUS
 10
623.230996
 20
338.591570
 40
6.000000
 41
0.944444
  1
入　力
  7
KANJI
 50
0.000000
 51
0.000000
  0
TEXT
  8
15
 62
96
  6
CONTINUOUS
 10
621.430996
 20
347.594814
 40
6.000000
 41
0.777778
  1
電源表示
  7
KANJI
 50
0.000000
 51
0.000000
  0
LINE
  8
15
 62
96
  6
CONTINUOUS
 10
620.173997
 20
181.044532
 11
800.227600
 21
181.044532
  0
TEXT
  8
15
 62
96
  6
CONTINUOUS
 10
622.951622
 20
293.618945
 40
6.000000
 41
0.944444
  1
警報ブザー入力
  7
KANJI
 50
0.000000
 51
0.000000
  0
LINE
  8
15
 62
96
  6
CONTINUOUS
 10
783.938934
 20
401.109412
 11
783.938934
 21
269.070484
  0
LINE
  8
15
 62
96
  6
CONTINUOUS
 10
669.905314
 20
401.109412
 11
669.905314
 21
269.070484
  0
LINE
  8
15
 62
96
  6
CONTINUOUS
 10
645.041325
 20
489.135364
 11
645.041325
 21
456.122388
  0
LINE
  8
15
 62
96
  6
CONTINUOUS
 10
645.041325
 20
478.135364
 11
800.227600
 21
478.135364
  0
TEXT
  8
15
 62
96
  6
DIVIDE
 10
648.405314
 20
458.635364
 40
6.000000
 41
0.833333
  1
文　字
  7
KANJI
 50
0.000000
 51
0.000000
  0
TEXT
  8
15
 62
96
  6
DIVIDE
 10
711.196822
 20
469.569715
 40
6.001769
 41
0.740741
  1
マンセル　Ｎ-3.0
  7
KANJI
 50
0.000000
 51
0.000000
  0
TEXT
  8
15
 62
96
  6
DIVIDE
 10
711.196822
 20
458.569715
 40
6.001769
 41
0.740741
  1
マンセル　Ｎ-8.5
  7
KANJI
 50
0.000000
 51
0.000000
  0
LINE
  8
15
 62
96
  6
CONTINUOUS
 10
645.041325
 20
467.135364
 11
800.227600
 21
467.135364
  0
TEXT
  8
15
 62
96
  6
DIVIDE
 10
648.466097
 20
480.635364
 40
6.000000
 41
0.833333
  1
本　体
  7
KANJI
 50
0.000000
 51
0.000000
  0
TEXT
  8
15
 62
96
  6
DIVIDE
 10
648.466097
 20
469.628876
 40
6.000000
 41
0.833333
  1
パネル
  7
KANJI
 50
0.000000
 51
0.000000
  0
TEXT
  8
15
 62
96
  6
DIVIDE
 10
623.616552
 20
469.628876
 40
6.000000
 41
0.833333
  1
彩　色
  7
KANJI
 50
0.000000
 51
0.000000
  0
LINE
  8
15
 62
96
  6
CONTINUOUS
 10
669.905314
 20
522.145096
 11
669.905314
 21
412.112656
  0
LINE
  8
15
 62
96
  6
CONTINUOUS
 10
620.173997
 20
401.109412
 11
800.227600
 21
401.109412
  0
LINE
  8
2
 62
134
  6
CONTINUOUS
 10
306.722285
 20
60.796263
 11
418.000253
 21
60.796263
  0
TEXT
  8
2
 62
134
  6
CONTINUOUS
 10
307.800731
 20
51.796263
 40
8.000000
 41
0.916667
  1
繰返しモード用パネル使用時
  7
KANJI
 50
0.000000
 51
0.000000
  0
LINE
  8
2
 62
134
  6
CONTINUOUS
 10
560.952100
 20
107.556827
 11
564.990351
 21
120.557061
  0
LINE
  8
2
 62
134
  6
CONTINUOUS
 10
564.990351
 20
120.557061
 11
615.990351
 21
120.557061
  0
TEXT
  8
2
 62
134
  6
CONTINUOUS
 10
564.990351
 20
120.557061
 40
6.000000
 41
0.833333
  1
一斉解錠釦 （赤）
  7
KANJI
 50
0.000000
 51
0.000000
  0
LINE
  8
2
 62
134
  6
CONTINUOUS
 10
560.952100
 20
107.556827
 11
561.141076
 21
112.353106
  0
LINE
  8
2
 62
134
  6
CONTINUOUS
 10
560.952100
 20
107.556827
 11
563.513897
 21
111.616039
  0
LINE
  8
2
 62
134
  6
CONTINUOUS
 10
518.464442
 20
104.128146
 11
530.667835
 21
143.414203
  0
LINE
  8
2
 62
134
  6
CONTINUOUS
 10
530.667835
 20
143.414203
 11
593.667835
 21
143.414203
  0
TEXT
  8
2
 62
134
  6
CONTINUOUS
 10
530.667835
 20
143.414203
 40
6.000000
 41
0.833333
  1
一斉解錠表示灯 （赤）
  7
KANJI
 50
0.000000
 51
0.000000
  0
LINE
  8
2
 62
134
  6
CONTINUOUS
 10
518.464442
 20
104.128146
 11
518.653418
 21
108.924425
  0
LINE
  8
2
 62
134
  6
CONTINUOUS
 10
518.464442
 20
104.128146
 11
521.026239
 21
108.187358
  0
LINE
  8
2
 62
134
  6
CONTINUOUS
 10
457.605351
 20
107.128242
 11
465.326781
 21
131.985632
  0
LINE
  8
2
 62
134
  6
CONTINUOUS
 10
465.326781
 20
131.985632
 11
489.326781
 21
131.985632
  0
TEXT
  8
2
 62
134
  6
CONTINUOUS
 10
465.326781
 20
131.985632
 40
6.000000
 41
0.833333
  1
ブザー孔
  7
KANJI
 50
0.000000
 51
0.000000
  0
LINE
  8
2
 62
134
  6
CONTINUOUS
 10
457.605351
 20
107.128242
 11
457.794327
 21
111.924521
  0
LINE
  8
2
 62
134
  6
CONTINUOUS
 10
457.605351
 20
107.128242
 11
460.167149
 21
111.187454
  0
LINE
  8
2
 62
134
  6
CONTINUOUS
 10
484.177630
 20
104.128146
 11
503.481118
 21
166.271346
  0
LINE
  8
2
 62
134
  6
CONTINUOUS
 10
503.481118
 20
166.271346
 11
563.481118
 21
166.271346
  0
TEXT
  8
2
 62
134
  6
CONTINUOUS
 10
503.481118
 20
166.271346
 40
6.000000
 41
0.833333
  1
電源表示灯（緑／赤）
  7
KANJI
 50
0.000000
 51
0.000000
  0
LINE
  8
2
 62
134
  6
CONTINUOUS
 10
484.177630
 20
104.128146
 11
484.366606
 21
108.924425
  0
LINE
  8
2
 62
134
  6
CONTINUOUS
 10
484.177630
 20
104.128146
 11
486.739427
 21
108.187358
  0
LINE
  8
2
 62
134
  6
CONTINUOUS
 10
501.321036
 20
104.128146
 11
517.074476
 21
154.842775
  0
LINE
  8
2
 62
134
  6
CONTINUOUS
 10
517.074476
 20
154.842775
 11
577.074476
 21
154.842775
  0
TEXT
  8
2
 62
134
  6
CONTINUOUS
 10
517.074476
 20
154.842775
 40
6.000000
 41
0.833333
  1
非常解錠表示灯（赤）
  7
KANJI
 50
0.000000
 51
0.000000
  0
LINE
  8
2
 62
134
  6
CONTINUOUS
 10
501.321036
 20
104.128146
 11
501.510012
 21
108.924425
  0
LINE
  8
2
 62
134
  6
CONTINUOUS
 10
501.321036
 20
104.128146
 11
503.882833
 21
108.187358
  0
LINE
  8
2
 62
134
  6
CONTINUOUS
 10
539.675570
 20
107.556827
 11
547.263868
 21
131.985632
  0
LINE
  8
2
 62
134
  6
CONTINUOUS
 10
547.263868
 20
131.985632
 11
598.263868
 21
131.985632
  0
TEXT
  8
2
 62
134
  6
CONTINUOUS
 10
547.263868
 20
131.985632
 40
6.000000
 41
0.833333
  1
リセット釦 （白）
  7
KANJI
 50
0.000000
 51
0.000000
  0
LINE
  8
2
 62
134
  6
CONTINUOUS
 10
539.675570
 20
107.556827
 11
539.864546
 21
112.353106
  0
LINE
  8
2
 62
134
  6
CONTINUOUS
 10
539.675570
 20
107.556827
 11
542.237367
 21
111.616039
  0
LINE
  8
2
 62
134
  6
CONTINUOUS
 10
447.239555
 20
60.796263
 11
571.825574
 21
60.796263
  0
TEXT
  8
2
 62
134
  6
CONTINUOUS
 10
449.235665
 20
61.796263
 40
8.000000
 41
0.916667
  1
一斉操作用パネル詳細（４：１）
  7
KANJI
 50
0.000000
 51
0.000000
  0
TEXT
  8
2
 62
134
  6
CONTINUOUS
 10
493.672549
 20
108.308449
 40
1.928633
 41
3.333333
  1
非　常
  7
KANJI
 50
-90.000000
 51
0.000000
  0
TEXT
  8
2
 62
134
  6
CONTINUOUS
 10
550.311833
 20
108.172772
 40
1.928633
 41
3.333333
  1
一　斉
  7
KANJI
 50
-90.000000
 51
0.000000
  0
TEXT
  8
2
 62
134
  6
CONTINUOUS
 10
528.750485
 20
110.162728
 40
1.928633
 41
3.333333
  1
リセット
  7
KANJI
 50
-90.000000
 51
0.000000
  0
TEXT
  8
2
 62
134
  6
CONTINUOUS
 10
510.749909
 20
108.346025
 40
1.928633
 41
3.333333
  1
一　斉
  7
KANJI
 50
-90.000000
 51
0.000000
  0
TEXT
  8
2
 62
134
  6
CONTINUOUS
 10
476.455645
 20
108.123192
 40
1.928633
 41
3.333333
  1
電　源
  7
KANJI
 50
-90.000000
 51
0.000000
  0
LINE
  8
2
 62
134
  6
CONTINUOUS
 10
443.462042
 20
89.127666
 11
580.609287
 21
89.127666
  0
LINE
  8
2
 62
134
  6
CONTINUOUS
 10
580.609287
 20
89.127666
 11
580.609287
 21
114.842775
  0
LINE
  8
2
 62
134
  6
CONTINUOUS
 10
580.609287
 20
114.842775
 11
443.462042
 21
114.842775
  0
LINE
  8
2
 62
134
  6
CONTINUOUS
 10
443.462042
 20
114.842775
 11
443.462042
 21
89.127666
  0
CIRCLE
  8
2
 62
134
  6
CONTINUOUS
 10
484.177630
 20
101.985221
 40
2.142926
  0
CIRCLE
  8
2
 62
134
  6
CONTINUOUS
 10
501.321036
 20
101.985221
 40
2.142926
  0
CIRCLE
  8
2
 62
134
  6
CONTINUOUS
 10
518.464442
 20
101.985221
 40
2.142926
  0
LINE
  8
2
 62
134
  6
CONTINUOUS
 10
534.322092
 20
96.413614
 11
545.465306
 21
96.413614
  0
LINE
  8
2
 62
134
  6
CONTINUOUS
 10
545.465306
 20
96.413614
 11
545.465306
 21
107.556827
  0
LINE
  8
2
 62
134
  6
CONTINUOUS
 10
545.465306
 20
107.556827
 11
534.322092
 21
107.556827
  0
LINE
  8
2
 62
134
  6
CONTINUOUS
 10
534.322092
 20
107.556827
 11
534.322092
 21
96.413614
  0
LINE
  8
2
 62
134
  6
CONTINUOUS
 10
555.751349
 20
96.413614
 11
566.894563
 21
96.413614
  0
LINE
  8
2
 62
134
  6
CONTINUOUS
 10
566.894563
 20
96.413614
 11
566.894563
 21
107.556827
  0
LINE
  8
2
 62
134
  6
CONTINUOUS
 10
566.894563
 20
107.556827
 11
555.751349
 21
107.556827
  0
LINE
  8
2
 62
134
  6
CONTINUOUS
 10
555.751349
 20
107.556827
 11
555.751349
 21
96.413614
  0
LINE
  8
2
 62
134
  6
CONTINUOUS
 10
470.891491
 20
89.984837
 11
470.891491
 21
113.985605
  0
LINE
  8
2
 62
134
  6
CONTINUOUS
 10
446.807564
 20
90.769453
 11
446.807564
 21
113.160763
  0
LINE
  8
2
 62
134
  6
CONTINUOUS
 10
446.807564
 20
90.769453
 11
468.319980
 21
90.769453
  0
LINE
  8
2
 62
134
  6
CONTINUOUS
 10
468.319980
 20
90.769453
 11
468.319980
 21
113.160763
  0
LINE
  8
2
 62
134
  6
CONTINUOUS
 10
446.807564
 20
113.160763
 11
468.319980
 21
113.160763
  0
LINE
  8
2
 62
134
  6
CONTINUOUS
 10
470.891491
 20
89.984837
 11
578.037777
 21
89.984837
  0
LINE
  8
2
 62
134
  6
CONTINUOUS
 10
578.037777
 20
89.984837
 11
578.037777
 21
113.985605
  0
LINE
  8
2
 62
134
  6
CONTINUOUS
 10
578.037777
 20
113.985605
 11
470.891491
 21
113.985605
  0
CIRCLE
  8
2
 62
134
  6
CONTINUOUS
 10
457.605351
 20
101.985221
 40
0.857170
  0
CIRCLE
  8
2
 62
134
  6
CONTINUOUS
 10
457.605351
 20
106.271072
 40
0.857170
  0
CIRCLE
  8
2
 62
134
  6
CONTINUOUS
 10
453.319500
 20
101.985221
 40
0.857170
  0
CIRCLE
  8
2
 62
134
  6
CONTINUOUS
 10
457.605351
 20
97.699369
 40
0.857170
  0
CIRCLE
  8
2
 62
134
  6
CONTINUOUS
 10
461.891203
 20
101.985221
 40
0.857170
  0
LINE
  8
2
 62
134
  6
CONTINUOUS
 10
445.075743
 20
89.127666
 11
445.075743
 21
114.842775
  0
LINE
  8
2
 62
134
  6
CONTINUOUS
 10
578.894947
 20
89.127666
 11
578.894947
 21
114.842775
  0
LINE
  8
2
 62
134
  6
CONTINUOUS
 10
364.343657
 20
151.272512
 11
384.243548
 21
157.260289
  0
LINE
  8
2
 62
134
  6
CONTINUOUS
 10
384.243548
 20
157.260289
 11
432.243548
 21
157.260289
  0
TEXT
  8
2
 62
134
  6
CONTINUOUS
 10
384.243548
 20
157.260289
 40
6.000000
 41
0.833333
  1
警報表示灯（赤）
  7
KANJI
 50
0.000000
 51
0.000000
  0
LINE
  8
2
 62
134
  6
CONTINUOUS
 10
364.343657
 20
151.272512
 11
368.425512
 21
153.798074
  0
LINE
  8
2
 62
134
  6
CONTINUOUS
 10
364.343657
 20
151.272512
 11
369.141428
 21
151.418785
  0
LINE
  8
2
 62
134
  6
CONTINUOUS
 10
364.343657
 20
168.415918
 11
383.795556
 21
176.998831
  0
LINE
  8
2
 62
134
  6
CONTINUOUS
 10
383.795556
 20
176.998831
 11
431.795556
 21
176.998831
  0
TEXT
  8
2
 62
134
  6
CONTINUOUS
 10
383.795556
 20
176.998831
 40
6.000000
 41
0.833333
  1
解錠表示灯（緑）
  7
KANJI
 50
0.000000
 51
0.000000
  0
LINE
  8
2
 62
134
  6
CONTINUOUS
 10
364.343657
 20
168.415918
 11
368.084013
 21
171.424196
  0
LINE
  8
2
 62
134
  6
CONTINUOUS
 10
364.343657
 20
168.415918
 11
369.087039
 21
169.150985
  0
LINE
  8
2
 62
134
  6
CONTINUOUS
 10
364.343657
 20
185.559323
 11
383.795556
 21
197.434403
  0
LINE
  8
2
 62
134
  6
CONTINUOUS
 10
383.795556
 20
197.434403
 11
431.795556
 21
197.434403
  0
TEXT
  8
2
 62
134
  6
CONTINUOUS
 10
383.795556
 20
197.434403
 40
6.000000
 41
0.833333
  1
開扉表示灯（赤）
  7
KANJI
 50
0.000000
 51
0.000000
  0
LINE
  8
2
 62
134
  6
CONTINUOUS
 10
364.343657
 20
185.559323
 11
367.653624
 21
189.035546
  0
LINE
  8
2
 62
134
  6
CONTINUOUS
 10
364.343657
 20
185.559323
 11
368.948283
 21
186.914837
  0
LINE
  8
2
 62
134
  6
CONTINUOUS
 10
367.772338
 20
108.235868
 11
384.243548
 21
113.736058
  0
LINE
  8
2
 62
134
  6
CONTINUOUS
 10
384.243548
 20
113.736058
 11
424.153669
 21
113.736058
  0
TEXT
  8
2
 62
134
  6
CONTINUOUS
 10
385.153669
 20
113.736058
 40
6.000000
 41
0.833333
  1
施錠釦 （灰）
  7
KANJI
 50
0.000000
 51
0.000000
  0
LINE
  8
2
 62
134
  6
CONTINUOUS
 10
367.772338
 20
108.235868
 11
371.776581
 21
110.882761
  0
LINE
  8
2
 62
134
  6
CONTINUOUS
 10
367.772338
 20
108.235868
 11
372.563560
 21
108.526023
  0
LINE
  8
2
 62
134
  6
CONTINUOUS
 10
367.772338
 20
130.742432
 11
384.243548
 21
136.518776
  0
LINE
  8
2
 62
134
  6
CONTINUOUS
 10
384.243548
 20
136.518776
 11
424.153669
 21
136.518776
  0
TEXT
  8
2
 62
134
  6
CONTINUOUS
 10
385.153669
 20
136.518776
 40
6.000000
 41
0.833333
  1
解錠釦 （灰）
  7
KANJI
 50
0.000000
 51
0.000000
  0
LINE
  8
2
 62
134
  6
CONTINUOUS
 10
367.772338
 20
130.742432
 11
371.736409
 21
133.449116
  0
LINE
  8
2
 62
134
  6
CONTINUOUS
 10
367.772338
 20
130.742432
 11
372.558666
 21
131.104454
  0
TEXT
  8
2
 62
134
  6
CONTINUOUS
 10
312.000731
 20
61.796263
 40
8.000000
 41
0.916667
  1
選択パネル詳細（４：１）
  7
KANJI
 50
0.000000
 51
0.000000
  0
TEXT
  8
2
 62
134
  6
CONTINUOUS
 10
356.003302
 20
115.913364
 40
3.857266
 41
0.833333
  1
施　錠
  7
KANJI
 50
0.000000
 51
0.000000
  0
TEXT
  8
2
 62
134
  6
CONTINUOUS
 10
356.546340
 20
137.445082
 40
3.857266
 41
0.833333
  1
解　錠
  7
KANJI
 50
0.000000
 51
0.000000
  0
TEXT
  8
2
 62
134
  6
CONTINUOUS
 10
356.414832
 20
172.933183
 40
3.857266
 41
0.833333
  1
解　錠
  7
KANJI
 50
0.000000
 51
0.000000
  0
TEXT
  8
2
 62
134
  6
CONTINUOUS
 10
356.687726
 20
155.558363
 40
3.857266
 41
0.833333
  1
警　報
  7
KANJI
 50
0.000000
 51
0.000000
  0
TEXT
  8
2
 62
134
  6
CONTINUOUS
 10
356.565587
 20
189.845175
 40
3.857266
 41
0.833333
  1
開　扉
  7
KANJI
 50
0.000000
 51
0.000000
  0
LINE
  8
2
 62
134
  6
CONTINUOUS
 10
374.201115
 20
91.699177
 11
374.201115
 21
198.845463
  0
LINE
  8
2
 62
134
  6
CONTINUOUS
 10
350.200347
 20
91.699177
 11
374.201115
 21
91.699177
  0
LINE
  8
2
 62
134
  6
CONTINUOUS
 10
350.200347
 20
198.845463
 11
350.200347
 21
91.699177
  0
LINE
  8
2
 62
134
  6
CONTINUOUS
 10
373.376274
 20
222.929390
 11
373.376274
 21
201.416974
  0
LINE
  8
2
 62
134
  6
CONTINUOUS
 10
350.984964
 20
201.416974
 11
373.376274
 21
201.416974
  0
LINE
  8
2
 62
134
  6
CONTINUOUS
 10
350.984964
 20
222.929390
 11
350.984964
 21
201.416974
  0
LINE
  8
2
 62
134
  6
CONTINUOUS
 10
350.984964
 20
222.929390
 11
373.376274
 21
222.929390
  0
LINE
  8
2
 62
134
  6
CONTINUOUS
 10
360.028953
 20
200.559803
 11
358.845537
 21
201.416227
  0
LINE
  8
2
 62
134
  6
CONTINUOUS
 10
364.762618
 20
200.559803
 11
365.838451
 21
201.416974
  0
LINE
  8
2
 62
134
  6
CONTINUOUS
 10
360.028953
 20
200.559803
 11
364.762618
 21
200.559803
  0
LINE
  8
2
 62
134
  6
CONTINUOUS
 10
350.200347
 20
198.845463
 11
374.201115
 21
198.845463
  0
LINE
  8
2
 62
134
  6
CONTINUOUS
 10
356.629124
 20
113.985605
 11
356.629124
 21
102.842391
  0
LINE
  8
2
 62
134
  6
CONTINUOUS
 10
356.629124
 20
102.842391
 11
367.772338
 21
102.842391
  0
LINE
  8
2
 62
134
  6
CONTINUOUS
 10
367.772338
 20
102.842391
 11
367.772338
 21
113.985605
  0
LINE
  8
2
 62
134
  6
CONTINUOUS
 10
367.772338
 20
113.985605
 11
356.629124
 21
113.985605
  0
LINE
  8
2
 62
134
  6
CONTINUOUS
 10
356.629124
 20
135.414862
 11
356.629124
 21
124.271648
  0
LINE
  8
2
 62
134
  6
CONTINUOUS
 10
356.629124
 20
124.271648
 11
367.772338
 21
124.271648
  0
LINE
  8
2
 62
134
  6
CONTINUOUS
 10
367.772338
 20
124.271648
 11
367.772338
 21
135.414862
  0
LINE
  8
2
 62
134
  6
CONTINUOUS
 10
367.772338
 20
135.414862
 11
356.629124
 21
135.414862
  0
CIRCLE
  8
2
 62
134
  6
CONTINUOUS
 10
362.200731
 20
151.272512
 40
2.142926
  0
CIRCLE
  8
2
 62
134
  6
CONTINUOUS
 10
362.200731
 20
168.415918
 40
2.142926
  0
CIRCLE
  8
2
 62
134
  6
CONTINUOUS
 10
362.200731
 20
185.559323
 40
2.142926
  0
LINE
  8
2
 62
134
  6
CONTINUOUS
 10
349.343177
 20
226.274912
 11
349.343177
 21
89.127666
  0
LINE
  8
2
 62
134
  6
CONTINUOUS
 10
349.343177
 20
89.127666
 11
375.058285
 21
89.127666
  0
LINE
  8
2
 62
134
  6
CONTINUOUS
 10
375.058285
 20
89.127666
 11
375.058285
 21
226.274912
  0
LINE
  8
2
 62
134
  6
CONTINUOUS
 10
375.058285
 20
226.274912
 11
349.343177
 21
226.274912
  0
LINE
  8
2
 62
134
  6
CONTINUOUS
 10
349.343177
 20
224.661211
 11
375.058285
 21
224.661211
  0
LINE
  8
2
 62
134
  6
CONTINUOUS
 10
349.343177
 20
90.842007
 11
375.058285
 21
90.842007
  0
LINE
  8
2
 62
134
  6
CONTINUOUS
 10
230.227253
 20
151.272512
 11
250.127145
 21
157.260289
  0
LINE
  8
2
 62
134
  6
CONTINUOUS
 10
250.127145
 20
157.260289
 11
298.127145
 21
157.260289
  0
TEXT
  8
2
 62
134
  6
CONTINUOUS
 10
250.127145
 20
157.260289
 40
6.000000
 41
0.833333
  1
解錠表示灯（赤）
  7
KANJI
 50
0.000000
 51
0.000000
  0
LINE
  8
2
 62
134
  6
CONTINUOUS
 10
230.227253
 20
151.272512
 11
234.309108
 21
153.798074
  0
LINE
  8
2
 62
134
  6
CONTINUOUS
 10
230.227253
 20
151.272512
 11
235.025024
 21
151.418785
  0
LINE
  8
2
 62
134
  6
CONTINUOUS
 10
230.227253
 20
168.415918
 11
249.679152
 21
176.998831
  0
LINE
  8
2
 62
134
  6
CONTINUOUS
 10
249.679152
 20
176.998831
 11
312.679152
 21
176.998831
  0
TEXT
  8
2
 62
134
  6
CONTINUOUS
 10
249.679152
 20
176.998831
 40
6.000000
 41
0.807692
  1
換気/全開表示灯（緑）
  7
KANJI
 50
0.000000
 51
0.000000
  0
LINE
  8
2
 62
134
  6
CONTINUOUS
 10
230.227253
 20
168.415918
 11
233.967609
 21
171.424196
  0
LINE
  8
2
 62
134
  6
CONTINUOUS
 10
230.227253
 20
168.415918
 11
234.970636
 21
169.150985
  0
LINE
  8
2
 62
134
  6
CONTINUOUS
 10
230.227253
 20
185.559323
 11
249.679152
 21
197.434403
  0
LINE
  8
2
 62
134
  6
CONTINUOUS
 10
249.679152
 20
197.434403
 11
297.679152
 21
197.434403
  0
TEXT
  8
2
 62
134
  6
CONTINUOUS
 10
249.679152
 20
197.434403
 40
6.000000
 41
0.833333
  1
開扉表示灯（赤）
  7
KANJI
 50
0.000000
 51
0.000000
  0
LINE
  8
2
 62
134
  6
CONTINUOUS
 10
230.227253
 20
185.559323
 11
233.537220
 21
189.035546
  0
LINE
  8
2
 62
134
  6
CONTINUOUS
 10
230.227253
 20
185.559323
 11
234.831880
 21
186.914837
  0
LINE
  8
2
 62
134
  6
CONTINUOUS
 10
233.655934
 20
130.742432
 11
250.127145
 21
136.518776
  0
LINE
  8
2
 62
134
  6
CONTINUOUS
 10
250.127145
 20
136.518776
 11
295.439195
 21
136.518776
  0
TEXT
  8
2
 62
134
  6
CONTINUOUS
 10
250.439195
 20
136.518776
 40
6.000000
 41
0.833333
  1
施解錠釦 （灰）
  7
KANJI
 50
0.000000
 51
0.000000
  0
LINE
  8
2
 62
134
  6
CONTINUOUS
 10
233.655934
 20
130.742432
 11
237.620005
 21
133.449116
  0
LINE
  8
2
 62
134
  6
CONTINUOUS
 10
233.655934
 20
130.742432
 11
238.442263
 21
131.104454
  0
LINE
  8
2
 62
134
  6
CONTINUOUS
 10
233.655934
 20
108.235868
 11
250.127145
 21
113.736058
  0
LINE
  8
2
 62
134
  6
CONTINUOUS
 10
250.127145
 20
113.736058
 11
289.880427
 21
113.736058
  0
TEXT
  8
2
 62
134
  6
CONTINUOUS
 10
250.880427
 20
113.736058
 40
6.000000
 41
0.833333
  1
換気釦 （灰）
  7
KANJI
 50
0.000000
 51
0.000000
  0
LINE
  8
2
 62
134
  6
CONTINUOUS
 10
233.655934
 20
108.235868
 11
237.660177
 21
110.882761
  0
LINE
  8
2
 62
134
  6
CONTINUOUS
 10
233.655934
 20
108.235868
 11
238.447157
 21
108.526023
  0
TEXT
  8
2
 62
134
  6
CONTINUOUS
 10
177.884328
 20
61.796263
 40
8.000000
 41
0.916667
  1
選択パネル詳細（４：１）
  7
KANJI
 50
0.000000
 51
0.000000
  0
TEXT
  8
2
 62
134
  6
CONTINUOUS
 10
177.884328
 20
51.796263
 40
8.000000
 41
0.916667
  1
換気モード用パネル使用時
  7
KANJI
 50
0.000000
 51
0.000000
  0
TEXT
  8
2
 62
134
  6
CONTINUOUS
 10
219.405478
 20
172.933183
 40
3.857266
 41
0.775862
  1
換気/全開
  7
KANJI
 50
0.000000
 51
0.000000
  0
TEXT
  8
2
 62
134
  6
CONTINUOUS
 10
222.571323
 20
155.558363
 40
3.857266
 41
0.833333
  1
解　錠
  7
KANJI
 50
0.000000
 51
0.000000
  0
TEXT
  8
2
 62
134
  6
CONTINUOUS
 10
222.429936
 20
137.445082
 40
3.857266
 41
0.833333
  1
施解錠
  7
KANJI
 50
0.000000
 51
0.000000
  0
TEXT
  8
2
 62
134
  6
CONTINUOUS
 10
221.886898
 20
115.913364
 40
3.857266
 41
0.833333
  1
換　気
  7
KANJI
 50
0.000000
 51
0.000000
  0
TEXT
  8
2
 62
134
  6
CONTINUOUS
 10
222.449184
 20
189.845175
 40
3.857266
 41
0.833333
  1
開　扉
  7
KANJI
 50
0.000000
 51
0.000000
  0
LINE
  8
2
 62
134
  6
CONTINUOUS
 10
240.084712
 20
91.699177
 11
240.084712
 21
198.845463
  0
LINE
  8
2
 62
134
  6
CONTINUOUS
 10
216.083944
 20
91.699177
 11
240.084712
 21
91.699177
  0
LINE
  8
2
 62
134
  6
CONTINUOUS
 10
216.083944
 20
198.845463
 11
216.083944
 21
91.699177
  0
LINE
  8
2
 62
134
  6
CONTINUOUS
 10
239.259870
 20
222.929390
 11
239.259870
 21
201.416974
  0
LINE
  8
2
 62
134
  6
CONTINUOUS
 10
216.868560
 20
201.416974
 11
239.259870
 21
201.416974
  0
LINE
  8
2
 62
134
  6
CONTINUOUS
 10
216.868560
 20
222.929390
 11
216.868560
 21
201.416974
  0
LINE
  8
2
 62
134
  6
CONTINUOUS
 10
216.868560
 20
222.929390
 11
239.259870
 21
222.929390
  0
LINE
  8
2
 62
134
  6
CONTINUOUS
 10
225.912549
 20
200.559803
 11
224.729133
 21
201.416227
  0
LINE
  8
2
 62
134
  6
CONTINUOUS
 10
230.646214
 20
200.559803
 11
231.722047
 21
201.416974
  0
LINE
  8
2
 62
134
  6
CONTINUOUS
 10
225.912549
 20
200.559803
 11
230.646214
 21
200.559803
  0
LINE
  8
2
 62
134
  6
CONTINUOUS
 10
216.083944
 20
198.845463
 11
240.084712
 21
198.845463
  0
LINE
  8
2
 62
134
  6
CONTINUOUS
 10
222.512721
 20
113.985605
 11
222.512721
 21
102.842391
  0
LINE
  8
2
 62
134
  6
CONTINUOUS
 10
222.512721
 20
102.842391
 11
233.655934
 21
102.842391
  0
LINE
  8
2
 62
134
  6
CONTINUOUS
 10
233.655934
 20
102.842391
 11
233.655934
 21
113.985605
  0
LINE
  8
2
 62
134
  6
CONTINUOUS
 10
233.655934
 20
113.985605
 11
222.512721
 21
113.985605
  0
LINE
  8
2
 62
134
  6
CONTINUOUS
 10
222.512721
 20
135.414862
 11
222.512721
 21
124.271648
  0
LINE
  8
2
 62
134
  6
CONTINUOUS
 10
222.512721
 20
124.271648
 11
233.655934
 21
124.271648
  0
LINE
  8
2
 62
134
  6
CONTINUOUS
 10
233.655934
 20
124.271648
 11
233.655934
 21
135.414862
  0
LINE
  8
2
 62
134
  6
CONTINUOUS
 10
233.655934
 20
135.414862
 11
222.512721
 21
135.414862
  0
CIRCLE
  8
2
 62
134
  6
CONTINUOUS
 10
228.084328
 20
151.272512
 40
2.142926
  0
CIRCLE
  8
2
 62
134
  6
CONTINUOUS
 10
228.084328
 20
168.415918
 40
2.142926
  0
CIRCLE
  8
2
 62
134
  6
CONTINUOUS
 10
228.084328
 20
185.559323
 40
2.142926
  0
LINE
  8
2
 62
134
  6
CONTINUOUS
 10
215.226773
 20
226.274912
 11
215.226773
 21
89.127666
  0
LINE
  8
2
 62
134
  6
CONTINUOUS
 10
215.226773
 20
89.127666
 11
240.941882
 21
89.127666
  0
LINE
  8
2
 62
134
  6
CONTINUOUS
 10
240.941882
 20
89.127666
 11
240.941882
 21
226.274912
  0
LINE
  8
2
 62
134
  6
CONTINUOUS
 10
240.941882
 20
226.274912
 11
215.226773
 21
226.274912
  0
LINE
  8
2
 62
134
  6
CONTINUOUS
 10
215.226773
 20
224.661211
 11
240.941882
 21
224.661211
  0
LINE
  8
2
 62
134
  6
CONTINUOUS
 10
215.226773
 20
90.842007
 11
240.941882
 21
90.842007
  0
LINE
  8
2
 62
134
  6
CONTINUOUS
 10
175.890336
 20
60.796263
 11
280.278319
 21
60.796263
  0
LINE
  8
2
 62
134
  6
CONTINUOUS
 10
98.136815
 20
151.272512
 11
118.036706
 21
157.260289
  0
LINE
  8
2
 62
134
  6
CONTINUOUS
 10
118.036706
 20
157.260289
 11
166.036706
 21
157.260289
  0
TEXT
  8
2
 62
134
  6
CONTINUOUS
 10
118.036706
 20
157.260289
 40
6.000000
 41
0.833333
  1
警報表示灯（赤）
  7
KANJI
 50
0.000000
 51
0.000000
  0
LINE
  8
2
 62
134
  6
CONTINUOUS
 10
98.136815
 20
151.272512
 11
102.218669
 21
153.798074
  0
LINE
  8
2
 62
134
  6
CONTINUOUS
 10
98.136815
 20
151.272512
 11
102.934585
 21
151.418785
  0
LINE
  8
2
 62
134
  6
CONTINUOUS
 10
98.136815
 20
168.415918
 11
117.588714
 21
176.998831
  0
LINE
  8
2
 62
134
  6
CONTINUOUS
 10
117.588714
 20
176.998831
 11
165.588714
 21
176.998831
  0
TEXT
  8
2
 62
134
  6
CONTINUOUS
 10
117.588714
 20
176.998831
 40
6.000000
 41
0.833333
  1
解錠表示灯（緑）
  7
KANJI
 50
0.000000
 51
0.000000
  0
LINE
  8
2
 62
134
  6
CONTINUOUS
 10
98.136815
 20
168.415918
 11
101.877170
 21
171.424196
  0
LINE
  8
2
 62
134
  6
CONTINUOUS
 10
98.136815
 20
168.415918
 11
102.880197
 21
169.150985
  0
LINE
  8
2
 62
134
  6
CONTINUOUS
 10
98.136815
 20
185.559323
 11
117.588714
 21
197.434403
  0
LINE
  8
2
 62
134
  6
CONTINUOUS
 10
117.588714
 20
197.434403
 11
165.588714
 21
197.434403
  0
TEXT
  8
2
 62
134
  6
CONTINUOUS
 10
117.588714
 20
197.434403
 40
6.000000
 41
0.833333
  1
開扉表示灯（赤）
  7
KANJI
 50
0.000000
 51
0.000000
  0
LINE
  8
2
 62
134
  6
CONTINUOUS
 10
98.136815
 20
185.559323
 11
101.446781
 21
189.035546
  0
LINE
  8
2
 62
134
  6
CONTINUOUS
 10
98.136815
 20
185.559323
 11
102.741441
 21
186.914837
  0
LINE
  8
2
 62
134
  6
CONTINUOUS
 10
101.565496
 20
108.235868
 11
118.036706
 21
113.736058
  0
LINE
  8
2
 62
134
  6
CONTINUOUS
 10
118.036706
 20
113.736058
 11
168.854835
 21
113.736058
  0
TEXT
  8
2
 62
134
  6
CONTINUOUS
 10
117.854835
 20
113.736058
 40
6.000000
 41
0.833333
  1
一回解錠釦 （灰）
  7
KANJI
 50
0.000000
 51
0.000000
  0
LINE
  8
2
 62
134
  6
CONTINUOUS
 10
101.565496
 20
108.235868
 11
105.569738
 21
110.882761
  0
LINE
  8
2
 62
134
  6
CONTINUOUS
 10
101.565496
 20
108.235868
 11
106.356718
 21
108.526023
  0
LINE
  8
2
 62
134
  6
CONTINUOUS
 10
101.565496
 20
130.742432
 11
118.036706
 21
136.518776
  0
LINE
  8
2
 62
134
  6
CONTINUOUS
 10
118.036706
 20
136.518776
 11
169.549050
 21
136.518776
  0
TEXT
  8
2
 62
134
  6
CONTINUOUS
 10
118.549050
 20
136.518776
 40
6.000000
 41
0.833333
  1
連続解錠釦 （灰）
  7
KANJI
 50
0.000000
 51
0.000000
  0
LINE
  8
2
 62
134
  6
CONTINUOUS
 10
101.565496
 20
130.742432
 11
105.529567
 21
133.449116
  0
LINE
  8
2
 62
134
  6
CONTINUOUS
 10
101.565496
 20
130.742432
 11
106.351824
 21
131.104454
  0
LINE
  8
2
 62
134
  6
CONTINUOUS
 10
37.004296
 20
60.796263
 11
155.701063
 21
60.796263
  0
TEXT
  8
2
 62
134
  6
CONTINUOUS
 10
45.793889
 20
61.796263
 40
8.000000
 41
0.916667
  1
選択パネル詳細（４：１）
  7
KANJI
 50
0.000000
 51
0.000000
  0
TEXT
  8
2
 62
134
  6
CONTINUOUS
 10
37.393889
 20
51.796263
 40
8.000000
 41
0.916667
  1
自動施錠モード用パネル使用時
  7
KANJI
 50
0.000000
 51
0.000000
  0
TEXT
  8
2
 62
134
  6
CONTINUOUS
 10
90.339498
 20
137.445082
 40
3.857266
 41
0.833333
  1
連　続
  7
KANJI
 50
0.000000
 51
0.000000
  0
TEXT
  8
2
 62
134
  6
CONTINUOUS
 10
90.480884
 20
155.558363
 40
3.857266
 41
0.833333
  1
警　報
  7
KANJI
 50
0.000000
 51
0.000000
  0
TEXT
  8
2
 62
134
  6
CONTINUOUS
 10
90.480884
 20
172.933183
 40
3.857266
 41
0.833333
  1
解　錠
  7
KANJI
 50
0.000000
 51
0.000000
  0
TEXT
  8
2
 62
134
  6
CONTINUOUS
 10
90.358745
 20
189.845175
 40
3.857266
 41
0.833333
  1
開　扉
  7
KANJI
 50
0.000000
 51
0.000000
  0
TEXT
  8
2
 62
134
  6
CONTINUOUS
 10
89.796459
 20
115.913364
 40
3.857266
 41
0.833333
  1
一　回
  7
KANJI
 50
0.000000
 51
0.000000
  0
LINE
  8
2
 62
134
  6
CONTINUOUS
 10
107.994273
 20
91.699177
 11
107.994273
 21
198.845463
  0
LINE
  8
2
 62
134
  6
CONTINUOUS
 10
83.993505
 20
91.699177
 11
107.994273
 21
91.699177
  0
LINE
  8
2
 62
134
  6
CONTINUOUS
 10
83.993505
 20
198.845463
 11
83.993505
 21
91.699177
  0
LINE
  8
2
 62
134
  6
CONTINUOUS
 10
107.169432
 20
222.929390
 11
107.169432
 21
201.416974
  0
LINE
  8
2
 62
134
  6
CONTINUOUS
 10
84.778122
 20
201.416974
 11
107.169432
 21
201.416974
  0
LINE
  8
2
 62
134
  6
CONTINUOUS
 10
84.778122
 20
222.929390
 11
84.778122
 21
201.416974
  0
LINE
  8
2
 62
134
  6
CONTINUOUS
 10
84.778122
 20
222.929390
 11
107.169432
 21
222.929390
  0
LINE
  8
2
 62
134
  6
CONTINUOUS
 10
93.822111
 20
200.559803
 11
92.638694
 21
201.416227
  0
LINE
  8
2
 62
134
  6
CONTINUOUS
 10
98.555776
 20
200.559803
 11
99.631609
 21
201.416974
  0
LINE
  8
2
 62
134
  6
CONTINUOUS
 10
93.822111
 20
200.559803
 11
98.555776
 21
200.559803
  0
LINE
  8
2
 62
134
  6
CONTINUOUS
 10
83.993505
 20
198.845463
 11
107.994273
 21
198.845463
  0
LINE
  8
2
 62
134
  6
CONTINUOUS
 10
90.422282
 20
113.985605
 11
90.422282
 21
102.842391
  0
LINE
  8
2
 62
134
  6
CONTINUOUS
 10
90.422282
 20
102.842391
 11
101.565496
 21
102.842391
  0
LINE
  8
2
 62
134
  6
CONTINUOUS
 10
101.565496
 20
102.842391
 11
101.565496
 21
113.985605
  0
LINE
  8
2
 62
134
  6
CONTINUOUS
 10
101.565496
 20
113.985605
 11
90.422282
 21
113.985605
  0
LINE
  8
2
 62
134
  6
CONTINUOUS
 10
90.422282
 20
135.414862
 11
90.422282
 21
124.271648
  0
LINE
  8
2
 62
134
  6
CONTINUOUS
 10
90.422282
 20
124.271648
 11
101.565496
 21
124.271648
  0
LINE
  8
2
 62
134
  6
CONTINUOUS
 10
101.565496
 20
124.271648
 11
101.565496
 21
135.414862
  0
LINE
  8
2
 62
134
  6
CONTINUOUS
 10
101.565496
 20
135.414862
 11
90.422282
 21
135.414862
  0
CIRCLE
  8
2
 62
134
  6
CONTINUOUS
 10
95.993889
 20
151.272512
 40
2.142926
  0
CIRCLE
  8
2
 62
134
  6
CONTINUOUS
 10
95.993889
 20
168.415918
 40
2.142926
  0
CIRCLE
  8
2
 62
134
  6
CONTINUOUS
 10
95.993889
 20
185.559323
 40
2.142926
  0
LINE
  8
2
 62
134
  6
CONTINUOUS
 10
83.136335
 20
226.274912
 11
83.136335
 21
89.127666
  0
LINE
  8
2
 62
134
  6
CONTINUOUS
 10
83.136335
 20
89.127666
 11
108.851443
 21
89.127666
  0
LINE
  8
2
 62
134
  6
CONTINUOUS
 10
108.851443
 20
89.127666
 11
108.851443
 21
226.274912
  0
LINE
  8
2
 62
134
  6
CONTINUOUS
 10
108.851443
 20
226.274912
 11
83.136335
 21
226.274912
  0
LINE
  8
2
 62
134
  6
CONTINUOUS
 10
83.136335
 20
224.661211
 11
108.851443
 21
224.661211
  0
LINE
  8
2
 62
134
  6
CONTINUOUS
 10
83.136335
 20
90.842007
 11
108.851443
 21
90.842007
  0
ENDSEC
  0
EOF
