  0
SECTION
  2
HEADER
  9
$ACADVER
  1
AC1003
  9
$INSBASE
 10
0.000000
 20
0.000000
  9
$EXTMIN
 10
0.000000
 20
0.000000
  9
$EXTMAX
 10
840.000000
 20
594.000000
  9
$LIMMIN
 10
0.000000
 20
0.000000
  9
$LIMMAX
 10
840.000000
 20
594.000000
  9
$VIEWCTR
 10
420.000000
 20
297.000000
  9
$VIEWSIZE
 40
594.000000
  9
$PEXTMIN
 10
0.000000
 20
0.000000
 30
0.000000
  9
$PEXTMAX
 10
420.000000
 20
297.000000
 30
0.000000
  9
$SNAPMODE
 70
     0
  9
$SNAPUNIT
 10
1.000000
 20
1.000000
  9
$SNAPBASE
 10
0.000000
 20
0.000000
  9
$SNAPANG
 50
0.000000
  9
$SNAPISOPAIR
 70
     0
  9
$SNAPSTYLE
 70
     0
  9
$GRIDMODE
 70
     0
  9
$GRIDUNIT
 10
0.000000
 20
0.000000
  9
$ORTHOMODE
 70
     0
  9
$REGENMODE
 70
     1
  9
$FILLMODE
 70
     1
  9
$QTEXTMODE
 70
     0
  9
$DRAGMODE
 70
     2
  9
$LTSCALE
 40
0.500000
  9
$OSMODE
 70
     0
  9
$ATTMODE
 70
     1
  9
$TEXTSIZE
 40
0.200000
  9
$TRACEWID
 40
0.050000
  9
$TEXTSTYLE
  7
STANDARD
  9
$CLAYER
  8
0
  9
$CELTYPE
  6
BYLAYER
  9
$CECOLOR
 62
   256
  9
$DIMSCALE
 40
1.000000
  9
$DIMASZ
 40
1.000000
  9
$DIMEXO
 40
0.000000
  9
$DIMDLI
 40
0.500000
  9
$DIMRND
 40
0.000000
  9
$DIMDLE
 40
0.000000
  9
$DIMEXE
 40
0.000000
  9
$DIMTP
 40
0.000000
  9
$DIMTM
 40
0.000000
  9
$DIMTXT
 40
0.180000
  9
$DIMCEN
 40
0.000000
  9
$DIMTSZ
 40
0.000000
  9
$DIMTOL
 70
     0
  9
$DIMLIM
 70
     0
  9
$DIMTIH
 70
     1
  9
$DIMTOH
 70
     1
  9
$DIMSE1
 70
     0
  9
$DIMSE2
 70
     0
  9
$DIMTAD
 70
     0
  9
$DIMZIN
 70
     0
  9
$DIMBLK
  1

  9
$DIMASO
 70
     0
  9
$DIMSHO
 70
     0
  9
$DIMPOST
  1

  9
$DIMAPOST
  1

  9
$DIMALT
 70
     0
  9
$DIMALTD
 70
     0
  9
$DIMALTF
 40
25.400000
  9
$DIMLFAC
 40
1.000000
  9
$DIMTOFL
 70
     0
  9
$DIMTVP
 40
0.000000
  9
$DIMTIX
 70
     0
  9
$DIMSOXD
 70
     0
  9
$DIMSAH
 70
     0
  9
$DIMBLKL
  1

  9
$DIMBLKR
  1

  9
$LUNITS
 70
     2
  9
$LUPREC
 70
     2
  9
$AXISMODE
 70
     0
  9
$AXISUNIT
 10
1.000000
 20
1.000000
  9
$SKETCHINC
 40
0.000000
  9
$FILLETRAD
 40
0.000000
  9
$AUNITS
 70
     1
  9
$AUPREC
 70
     2
  9
$MENU
  1
ACAD
  9
$ELEVATION
 40
0.000000
  9
$THICKNESS
 40
0.000000
  9
$VIEWDIR
 10
0.000000
 20
0.000000
 30
1.000000
  9
$LIMCHECK
 70
     1
  9
$BLIPMODE
 70
     1
  9
$CHAMFERA
 40
0.000000
  9
$CHAMFERB
 40
0.000000
  9
$FASTZOOM
 70
     1
  9
$SKPOLY
 70
     0
  9
$TDCREATE
 40
0.000000
  9
$TDUPDATE
 40
0.000000
  9
$TDINDWG
 40
0.000000
  9
$TDUSRTIMER
 40
0.000000
  9
$USRTIMER
 70
     1
  9
$ANGBASE
 50
0.000000
  9
$ANGDIR
 70
     0
  9
$PDMODE
 70
     0
  9
$PDSIZE
 40
0.000000
  9
$PLINEWID
 40
0.000000
  9
$COORDS
 70
     2
  9
$USERI1
 70
     0
  9
$USERI2
 70
     0
  9
$USERI3
 70
     0
  9
$USERI4
 70
     0
  9
$USERI5
 70
     0
  9
$USERR1
 40
0.000000
  9
$USERR2
 40
0.000000
  9
$USERR3
 40
0.000000
  9
$USERR4
 40
0.000000
  9
$USERR5
 40
0.000000
  0
ENDSEC
  0
SECTION
  2
TABLES
  0
TABLE
  2
LTYPE
 70
     5
  0
LTYPE
  2
CONTINUOUS
 70
    64
  3
Solid line
 72
    65
 73
     0
 40
0.0
  0
LTYPE
  2
HIDDEN
 70
    64
  3
------------------------
 72
    65
 73
     2
 40
12.6
 49
8.4
 49
-4.2
  0
LTYPE
  2
DOT
 70
    64
  3
････････････････････････
 72
    65
 73
     2
 40
8.0
 49
6.0
 49
-2.0
  0
LTYPE
  2
DASHDOT
 70
    64
  3
--･--･--･--･--･--･--･--
 72
    65
 73
     4
 40
50.5
 49
30.0
 49
-9.0
 49
2.5
 49
-9.0
  0
LTYPE
  2
DIVIDE
 70
    64
  3
--･･--･･--･･--･･--･･--
 72
    65
 73
     6
 40
58.0
 49
30.0
 49
-9.0
 49
2.5
 49
-5.0
 49
2.5
 49
-9.0
  0
ENDTAB
  0
TABLE
  2
LAYER
 70
3
  0
LAYER
  2
1
 70
64
 62
7
  6
CONTINUOUS
  0
LAYER
  2
2
 70
64
 62
134
  6
CONTINUOUS
  0
LAYER
  2
15
 70
64
 62
96
  6
CONTINUOUS
  0
ENDTAB
  0
TABLE
  2
STYLE
 70
     2
  0
STYLE
  2
STANDARD
 70
    64
 40
0.0
 41
1.0
 50
0.0
 71
     0
 42
0.2
  3
TXT
  4

  0
STYLE
  2
KANJI
 70
    64
 40
0.0
 41
1.0
 50
0.0
 71
     0
 42
0.2
  3
TXT
  4
BIGFONT
  0
ENDTAB
  0
TABLE
  2
VIEW
 70
     0
  0
ENDTAB
  0
ENDSEC
  0
SECTION
  2
BLOCKS
  0
ENDSEC
  0
SECTION
  2
ENTITIES
  0
LINE
  8
15
 62
96
  6
CONTINUOUS
 10
30.000000
 20
544.151584
 11
30.000000
 21
30.000000
  0
LINE
  8
15
 62
96
  6
CONTINUOUS
 10
30.000000
 20
30.000000
 11
800.227081
 21
30.000000
  0
LINE
  8
15
 62
96
  6
CONTINUOUS
 10
728.879008
 20
41.403554
 11
703.946332
 21
41.403554
  0
TEXT
  8
15
 62
96
  6
CONTINUOUS
 10
668.409370
 20
39.382282
 40
3.601062
 41
1.018519
  1
出入管理システム
  7
KANJI
 50
0.000000
 51
0.000000
  0
TEXT
  8
15
 62
96
  6
CONTINUOUS
 10
668.550527
 20
31.618634
 40
7.202123
 41
1.782407
  1
株式会社
  7
KANJI
 50
0.000000
 51
0.000000
  0
LINE
  8
15
 62
96
  6
CONTINUOUS
 10
628.756797
 20
31.757640
 11
635.092369
 21
31.757640
  0
LINE
  8
15
 62
96
  6
CONTINUOUS
 10
666.038375
 20
39.457096
 11
666.038375
 21
41.888499
  0
LINE
  8
15
 62
96
  6
CONTINUOUS
 10
663.404362
 20
39.457096
 11
666.038375
 21
39.457096
  0
LINE
  8
15
 62
96
  6
CONTINUOUS
 10
663.404362
 20
31.757640
 11
663.404362
 21
39.457096
  0
LINE
  8
15
 62
96
  6
CONTINUOUS
 10
660.567717
 20
31.757640
 11
663.404362
 21
31.757640
  0
LINE
  8
15
 62
96
  6
CONTINUOUS
 10
658.863116
 20
31.757640
 11
655.299669
 21
31.757640
  0
LINE
  8
15
 62
96
  6
CONTINUOUS
 10
640.508608
 20
31.757640
 11
649.221143
 21
31.757640
  0
LINE
  8
15
 62
96
  6
CONTINUOUS
 10
640.508608
 20
36.012600
 11
640.508608
 21
31.757640
  0
LINE
  8
15
 62
96
  6
CONTINUOUS
 10
635.092369
 20
31.757640
 11
644.966187
 21
41.533696
  0
LINE
  8
15
 62
96
  6
CONTINUOUS
 10
644.966187
 20
41.533696
 11
644.966187
 21
36.012600
  0
LINE
  8
15
 62
96
  6
CONTINUOUS
 10
644.966187
 20
36.012600
 11
640.508608
 21
36.012600
  0
LINE
  8
15
 62
96
  6
CONTINUOUS
 10
649.221143
 20
37.430920
 11
655.299669
 21
31.757640
  0
ARC
  8
15
 62
96
  6
CONTINUOUS
 10
654.083963
 20
38.444008
 40
1.013088
 50
-90.000000
 51
90.000000
  0
LINE
  8
15
 62
96
  6
CONTINUOUS
 10
649.221143
 20
37.430920
 11
654.083963
 21
37.430920
  0
LINE
  8
15
 62
96
  6
CONTINUOUS
 10
650.031617
 20
39.457096
 11
654.083963
 21
39.457096
  0
LINE
  8
15
 62
96
  6
CONTINUOUS
 10
650.031617
 20
41.888499
 11
650.031617
 21
39.457096
  0
LINE
  8
15
 62
96
  6
CONTINUOUS
 10
650.031617
 20
41.888499
 11
654.851778
 21
41.888499
  0
ARC
  8
15
 62
96
  6
CONTINUOUS
 10
654.467866
 20
38.444008
 40
3.465820
 50
-76.055153
 51
83.640296
  0
LINE
  8
15
 62
96
  6
CONTINUOUS
 10
655.299669
 20
35.083527
 11
658.863116
 21
31.757640
  0
LINE
  8
15
 62
96
  6
CONTINUOUS
 10
666.038375
 20
41.888499
 11
657.933686
 21
41.888499
  0
LINE
  8
15
 62
96
  6
CONTINUOUS
 10
657.933686
 20
41.888499
 11
657.933686
 21
39.457096
  0
LINE
  8
15
 62
96
  6
CONTINUOUS
 10
657.933686
 20
39.457096
 11
660.567717
 21
39.457096
  0
LINE
  8
15
 62
96
  6
CONTINUOUS
 10
660.567717
 20
39.457096
 11
660.567717
 21
31.757640
  0
TEXT
  8
15
 62
96
  6
CONTINUOUS
 10
621.036305
 20
95.928688
 40
5.001474
 41
0.900000
  1
製品名
  7
KANJI
 50
0.000000
 51
0.000000
  0
LINE
  8
15
 62
96
  6
CONTINUOUS
 10
620.173997
 20
30.000000
 11
620.173997
 21
120.026556
  0
LINE
  8
15
 62
96
  6
CONTINUOUS
 10
620.173997
 20
102.021247
 11
800.227081
 21
102.021247
  0
LINE
  8
15
 62
96
  6
CONTINUOUS
 10
620.173997
 20
102.021234
 11
800.227081
 21
102.021247
  0
LINE
  8
15
 62
96
  6
CONTINUOUS
 10
800.227081
 20
54.007092
 11
620.173997
 21
54.007078
  0
TEXT
  8
15
 62
96
  6
CONTINUOUS
 10
621.665981
 20
78.177051
 40
5.001474
 41
0.900000
  1
縮尺（Ａ３）
  7
KANJI
 50
0.000000
 51
0.000000
  0
LINE
  8
15
 62
96
  6
CONTINUOUS
 10
650.182845
 20
66.010619
 11
650.182845
 21
54.007080
  0
LINE
  8
15
 62
96
  6
CONTINUOUS
 10
649.221143
 20
31.757640
 11
649.221143
 21
52.019363
  0
LINE
  8
15
 62
96
  6
CONTINUOUS
 10
649.221143
 20
52.019363
 11
628.756797
 21
31.757640
  0
LINE
  8
15
 62
96
  6
CONTINUOUS
 10
648.687832
 20
51.491333
 11
649.221143
 21
51.491333
  0
TEXT
  8
15
 62
96
  6
CONTINUOUS
 10
733.224966
 20
30.773985
 40
20.005898
 41
0.833333
  1
アート
  7
KANJI
 50
0.000000
 51
0.000000
  0
TEXT
  8
15
 62
96
  6
CONTINUOUS
 10
624.450470
 20
57.026766
 40
5.001474
 41
0.900000
  1
図面番号
  7
KANJI
 50
0.000000
 51
0.000000
  0
TEXT
  8
15
 62
96
  6
CONTINUOUS
 10
752.320241
 20
77.711739
 40
5.001474
 41
0.900000
  1
作図
  7
KANJI
 50
0.000000
 51
0.000000
  0
LINE
  8
15
 62
96
  6
CONTINUOUS
 10
650.182845
 20
84.015925
 11
650.182845
 21
66.010619
  0
LINE
  8
15
 62
96
  6
CONTINUOUS
 10
700.197590
 20
84.015925
 11
700.197590
 21
66.010623
  0
LINE
  8
15
 62
96
  6
CONTINUOUS
 10
750.212336
 20
84.015925
 11
750.212336
 21
66.010627
  0
LINE
  8
15
 62
96
  6
CONTINUOUS
 10
620.173997
 20
533.148340
 11
800.227081
 21
533.148340
  0
LINE
  8
15
 62
96
  6
CONTINUOUS
 10
620.173997
 20
522.145096
 11
800.227081
 21
522.145096
  0
LINE
  8
15
 62
96
  6
CONTINUOUS
 10
620.173997
 20
511.141852
 11
800.227081
 21
511.141852
  0
LINE
  8
15
 62
96
  6
CONTINUOUS
 10
800.227081
 20
500.138608
 11
620.173997
 21
500.138608
  0
LINE
  8
15
 62
96
  6
CONTINUOUS
 10
620.173997
 20
489.135364
 11
800.227081
 21
489.135364
  0
LINE
  8
15
 62
96
  6
CONTINUOUS
 10
620.173997
 20
544.151584
 11
620.173997
 21
145.033928
  0
LINE
  8
15
 62
96
  6
CONTINUOUS
 10
620.173997
 20
120.026556
 11
620.173997
 21
145.033928
  0
TEXT
  8
15
 62
96
  6
DIVIDE
 10
630.176946
 20
535.649077
 40
6.001769
 41
0.833333
  1
商品コード
  7
KANJI
 50
0.000000
 51
0.000000
  0
TEXT
  8
15
 62
96
  6
DIVIDE
 10
689.194346
 20
524.645833
 40
6.001769
 41
0.833333
  1
定　　　　　格
  7
KANJI
 50
0.000000
 51
0.000000
  0
LINE
  8
15
 62
96
  6
CONTINUOUS
 10
800.220119
 20
290.869593
 11
800.220119
 21
295.133722
  0
LINE
  8
15
 62
96
  6
CONTINUOUS
 10
30.000000
 20
544.151584
 11
800.227600
 21
544.151584
  0
LINE
  8
15
 62
96
  6
CONTINUOUS
 10
800.227600
 20
29.999354
 11
800.227600
 21
544.150938
  0
TEXT
  8
15
 62
96
  6
CONTINUOUS
 10
621.035263
 20
113.255697
 40
5.001474
 41
0.900000
  1
型　式
  7
KANJI
 50
0.000000
 51
0.000000
  0
LINE
  8
15
 62
96
  6
CONTINUOUS
 10
620.172955
 20
119.026247
 11
800.226039
 21
119.026247
  0
LINE
  8
15
 62
96
  6
CONTINUOUS
 10
669.905314
 20
544.151584
 11
669.905314
 21
533.148340
  0
LINE
  8
15
 62
96
  6
CONTINUOUS
 10
620.172955
 20
130.029491
 11
800.226039
 21
130.029491
  0
TEXT
  8
15
 62
96
  6
CONTINUOUS
 10
632.576612
 20
121.526984
 40
6.001769
 41
0.944444
  1
図面履歴
  7
KANJI
 50
-0.000000
 51
0.000000
  0
LINE
  8
15
 62
96
  6
CONTINUOUS
 10
620.172955
 20
119.026247
 11
800.226039
 21
119.026247
  0
LINE
  8
15
 62
96
  6
CONTINUOUS
 10
670.187701
 20
130.029491
 11
670.187701
 21
119.026247
  0
LINE
  8
15
 62
96
  6
CONTINUOUS
 10
620.172955
 20
119.026247
 11
800.226039
 21
119.026247
  0
LINE
  8
15
 62
96
  6
CONTINUOUS
 10
710.241002
 20
66.007085
 11
710.241002
 21
54.007085
  0
LINE
  8
15
 62
96
  6
CONTINUOUS
 10
724.241002
 20
66.007095
 11
724.241002
 21
54.007095
  0
TEXT
  8
15
 62
96
  6
CONTINUOUS
 10
712.264335
 20
57.242959
 40
5.000000
 41
0.900000
  1
日付
  7
KANJI
 50
0.000000
 51
0.000000
  0
LINE
  8
15
 62
96
  6
CONTINUOUS
 10
776.227081
 20
66.007090
 11
776.227081
 21
54.007090
  0
LINE
  8
15
 62
96
  6
CONTINUOUS
 10
782.328460
 20
64.487090
 11
782.328460
 21
55.527090
  0
CIRCLE
  8
15
 62
96
  6
CONTINUOUS
 10
782.328460
 20
60.007090
 40
1.920000
  0
CIRCLE
  8
15
 62
96
  6
CONTINUOUS
 10
782.328460
 20
60.007090
 40
3.200000
  0
LINE
  8
15
 62
96
  6
CONTINUOUS
 10
787.607002
 20
61.927090
 11
787.607002
 21
58.087090
  0
LINE
  8
15
 62
96
  6
CONTINUOUS
 10
797.847002
 20
63.207090
 11
797.847002
 21
56.807090
  0
LINE
  8
15
 62
96
  6
CONTINUOUS
 10
787.607002
 20
61.927090
 11
797.847002
 21
63.207090
  0
LINE
  8
15
 62
96
  6
CONTINUOUS
 10
787.607002
 20
58.087090
 11
797.847002
 21
56.807090
  0
LINE
  8
15
 62
96
  6
CONTINUOUS
 10
777.848460
 20
60.007090
 11
798.939002
 21
60.007090
  0
TEXT
  8
15
 62
96
  6
CONTINUOUS
 10
651.605163
 20
78.365937
 40
5.001474
 41
0.900000
  1
承認
  7
KANJI
 50
0.000000
 51
0.000000
  0
TEXT
  8
15
 62
96
  6
CONTINUOUS
 10
701.619909
 20
78.365937
 40
5.001474
 41
0.900000
  1
検図
  7
KANJI
 50
0.000000
 51
0.000000
  0
TEXT
  8
15
 62
96
  6
CONTINUOUS
 10
720.835107
 20
69.141220
 40
10.002949
 41
0.900000
  1
辻
  7
KANJI
 50
0.000000
 51
0.000000
  0
TEXT
  8
15
 62
96
  6
CONTINUOUS
 10
664.974161
 20
69.141220
 40
10.002949
 41
0.900000
  1
仲代
  7
KANJI
 50
0.000000
 51
0.000000
  0
LINE
  8
15
 62
96
  6
CONTINUOUS
 10
800.227600
 20
66.010630
 11
620.173997
 21
66.010617
  0
LINE
  8
15
 62
96
  6
CONTINUOUS
 10
620.173997
 20
84.015925
 11
800.227600
 21
84.015925
  0
TEXT
  8
15
 62
96
  6
CONTINUOUS
 10
767.671106
 20
69.141220
 40
10.002949
 41
0.900000
  1
細川
  7
KANJI
 50
0.000000
 51
0.000000
  0
TEXT
  8
15
 62
96
  6
CONTINUOUS
 10
728.811045
 20
56.887915
 40
6.001769
 41
0.603448
  1
2007年09月05日
  7
KANJI
 50
0.000000
 51
0.000000
  0
TEXT
  8
15
 62
96
  6
DIVIDE
 10
636.178716
 20
513.642589
 40
6.001769
 41
0.833333
  1
筐　体
  7
KANJI
 50
0.000000
 51
0.000000
  0
TEXT
  8
15
 62
96
  6
DIVIDE
 10
636.178716
 20
502.639345
 40
6.001769
 41
0.833333
  1
材　質
  7
KANJI
 50
0.000000
 51
0.000000
  0
TEXT
  8
15
 62
96
  6
DIVIDE
 10
636.178716
 20
491.636101
 40
6.001769
 41
0.833333
  1
仕　上
  7
KANJI
 50
0.000000
 51
0.000000
  0
TEXT
  8
15
 62
96
  6
DIVIDE
 10
723.312261
 20
491.710315
 40
6.001769
 41
0.833333
  1
粉体塗装
  7
KANJI
 50
0.000000
 51
0.000000
  0
TEXT
  8
15
 62
96
  6
CONTINUOUS
 10
689.534293
 20
87.887221
 40
10.002949
 41
0.900000
  1
副制御盤
  7
KANJI
 50
0.000000
 51
0.000000
  0
TEXT
  8
15
 62
96
  6
CONTINUOUS
 10
625.843729
 20
69.030416
 40
6.001769
 41
0.833333
  1
１：１０
  7
KANJI
 50
0.000000
 51
0.000000
  0
LINE
  8
1
 62
7
  6
CONTINUOUS
 10
119.645856
 20
471.100968
 11
119.645856
 21
271.100968
  0
LINE
  8
1
 62
7
  6
CONTINUOUS
 10
119.645856
 20
271.100968
 11
239.645856
 21
271.100968
  0
LINE
  8
1
 62
7
  6
CONTINUOUS
 10
239.645856
 20
271.100968
 11
239.645856
 21
471.100968
  0
LINE
  8
1
 62
7
  6
CONTINUOUS
 10
239.645856
 20
471.100968
 11
119.645856
 21
471.100968
  0
LINE
  8
1
 62
7
  6
CONTINUOUS
 10
123.645857
 20
467.100967
 11
123.645857
 21
275.100969
  0
LINE
  8
1
 62
7
  6
CONTINUOUS
 10
123.645857
 20
275.100969
 11
235.645857
 21
275.100969
  0
LINE
  8
1
 62
7
  6
CONTINUOUS
 10
235.645857
 20
275.100969
 11
235.645857
 21
467.100967
  0
LINE
  8
1
 62
7
  6
CONTINUOUS
 10
235.645857
 20
467.100967
 11
123.645857
 21
467.100967
  0
LINE
  8
1
 62
7
  6
CONTINUOUS
 10
174.178927
 20
415.500968
 11
180.195856
 21
415.500968
  0
LINE
  8
1
 62
7
  6
CONTINUOUS
 10
179.995856
 20
415.700968
 11
179.995856
 21
440.700968
  0
LINE
  8
1
 62
7
  6
CONTINUOUS
 10
174.395856
 20
415.700968
 11
179.995856
 21
415.700968
  0
LINE
  8
1
 62
7
  6
CONTINUOUS
 10
174.395856
 20
440.700968
 11
174.395856
 21
415.700968
  0
LINE
  8
1
 62
7
  6
CONTINUOUS
 10
179.803399
 20
446.320372
 11
179.803399
 21
441.300968
  0
LINE
  8
1
 62
7
  6
CONTINUOUS
 10
174.578927
 20
441.300968
 11
179.803399
 21
441.300968
  0
LINE
  8
1
 62
7
  6
CONTINUOUS
 10
174.578927
 20
446.320372
 11
174.578927
 21
441.300968
  0
LINE
  8
1
 62
7
  6
CONTINUOUS
 10
174.578927
 20
446.320372
 11
179.803399
 21
446.320372
  0
LINE
  8
1
 62
7
  6
CONTINUOUS
 10
176.689124
 20
441.100968
 11
176.413002
 21
441.300794
  0
LINE
  8
1
 62
7
  6
CONTINUOUS
 10
177.793610
 20
441.100968
 11
178.044630
 21
441.300968
  0
LINE
  8
1
 62
7
  6
CONTINUOUS
 10
176.689124
 20
441.100968
 11
177.793610
 21
441.100968
  0
LINE
  8
1
 62
7
  6
CONTINUOUS
 10
174.395856
 20
440.700968
 11
179.995856
 21
440.700968
  0
LINE
  8
1
 62
7
  6
CONTINUOUS
 10
175.895856
 20
420.900968
 11
175.895856
 21
418.300968
  0
LINE
  8
1
 62
7
  6
CONTINUOUS
 10
175.895856
 20
418.300968
 11
178.495856
 21
418.300968
  0
LINE
  8
1
 62
7
  6
CONTINUOUS
 10
178.495856
 20
418.300968
 11
178.495856
 21
420.900968
  0
LINE
  8
1
 62
7
  6
CONTINUOUS
 10
178.495856
 20
420.900968
 11
175.895856
 21
420.900968
  0
LINE
  8
1
 62
7
  6
CONTINUOUS
 10
175.895856
 20
425.900968
 11
175.895856
 21
423.300968
  0
LINE
  8
1
 62
7
  6
CONTINUOUS
 10
175.895856
 20
423.300968
 11
178.495856
 21
423.300968
  0
LINE
  8
1
 62
7
  6
CONTINUOUS
 10
178.495856
 20
423.300968
 11
178.495856
 21
425.900968
  0
LINE
  8
1
 62
7
  6
CONTINUOUS
 10
178.495856
 20
425.900968
 11
175.895856
 21
425.900968
  0
CIRCLE
  8
1
 62
7
  6
CONTINUOUS
 10
177.195856
 20
429.600968
 40
0.500000
  0
CIRCLE
  8
1
 62
7
  6
CONTINUOUS
 10
177.195856
 20
433.600968
 40
0.500000
  0
CIRCLE
  8
1
 62
7
  6
CONTINUOUS
 10
177.195856
 20
437.600968
 40
0.500000
  0
LINE
  8
1
 62
7
  6
CONTINUOUS
 10
174.195856
 20
447.100968
 11
174.195856
 21
415.100968
  0
LINE
  8
1
 62
7
  6
CONTINUOUS
 10
174.195856
 20
415.100968
 11
180.195856
 21
415.100968
  0
LINE
  8
1
 62
7
  6
CONTINUOUS
 10
180.195856
 20
415.100968
 11
180.195856
 21
447.100968
  0
LINE
  8
1
 62
7
  6
CONTINUOUS
 10
180.195856
 20
447.100968
 11
174.195856
 21
447.100968
  0
LINE
  8
1
 62
7
  6
CONTINUOUS
 10
168.178927
 20
415.500968
 11
174.195856
 21
415.500968
  0
LINE
  8
1
 62
7
  6
CONTINUOUS
 10
173.995856
 20
415.700968
 11
173.995856
 21
440.700968
  0
LINE
  8
1
 62
7
  6
CONTINUOUS
 10
168.395856
 20
415.700968
 11
173.995856
 21
415.700968
  0
LINE
  8
1
 62
7
  6
CONTINUOUS
 10
168.395856
 20
440.700968
 11
168.395856
 21
415.700968
  0
LINE
  8
1
 62
7
  6
CONTINUOUS
 10
173.803399
 20
446.320372
 11
173.803399
 21
441.300968
  0
LINE
  8
1
 62
7
  6
CONTINUOUS
 10
168.578927
 20
441.300968
 11
173.803399
 21
441.300968
  0
LINE
  8
1
 62
7
  6
CONTINUOUS
 10
168.578927
 20
446.320372
 11
168.578927
 21
441.300968
  0
LINE
  8
1
 62
7
  6
CONTINUOUS
 10
168.578927
 20
446.320372
 11
173.803399
 21
446.320372
  0
LINE
  8
1
 62
7
  6
CONTINUOUS
 10
168.178927
 20
446.724450
 11
174.203399
 21
446.724450
  0
LINE
  8
1
 62
7
  6
CONTINUOUS
 10
170.689124
 20
441.100968
 11
170.413002
 21
441.300794
  0
LINE
  8
1
 62
7
  6
CONTINUOUS
 10
171.793610
 20
441.100968
 11
172.044630
 21
441.300968
  0
LINE
  8
1
 62
7
  6
CONTINUOUS
 10
170.689124
 20
441.100968
 11
171.793610
 21
441.100968
  0
LINE
  8
1
 62
7
  6
CONTINUOUS
 10
168.395856
 20
440.700968
 11
173.995856
 21
440.700968
  0
LINE
  8
1
 62
7
  6
CONTINUOUS
 10
169.895856
 20
420.900968
 11
169.895856
 21
418.300968
  0
LINE
  8
1
 62
7
  6
CONTINUOUS
 10
169.895856
 20
418.300968
 11
172.495856
 21
418.300968
  0
LINE
  8
1
 62
7
  6
CONTINUOUS
 10
172.495856
 20
418.300968
 11
172.495856
 21
420.900968
  0
LINE
  8
1
 62
7
  6
CONTINUOUS
 10
172.495856
 20
420.900968
 11
169.895856
 21
420.900968
  0
LINE
  8
1
 62
7
  6
CONTINUOUS
 10
169.895856
 20
425.900968
 11
169.895856
 21
423.300968
  0
LINE
  8
1
 62
7
  6
CONTINUOUS
 10
169.895856
 20
423.300968
 11
172.495856
 21
423.300968
  0
LINE
  8
1
 62
7
  6
CONTINUOUS
 10
172.495856
 20
423.300968
 11
172.495856
 21
425.900968
  0
LINE
  8
1
 62
7
  6
CONTINUOUS
 10
172.495856
 20
425.900968
 11
169.895856
 21
425.900968
  0
CIRCLE
  8
1
 62
7
  6
CONTINUOUS
 10
171.195856
 20
429.600968
 40
0.500000
  0
CIRCLE
  8
1
 62
7
  6
CONTINUOUS
 10
171.195856
 20
433.600968
 40
0.500000
  0
CIRCLE
  8
1
 62
7
  6
CONTINUOUS
 10
171.195856
 20
437.600968
 40
0.500000
  0
LINE
  8
1
 62
7
  6
CONTINUOUS
 10
168.195856
 20
447.100968
 11
168.195856
 21
415.100968
  0
LINE
  8
1
 62
7
  6
CONTINUOUS
 10
168.195856
 20
415.100968
 11
174.195856
 21
415.100968
  0
LINE
  8
1
 62
7
  6
CONTINUOUS
 10
174.195856
 20
415.100968
 11
174.195856
 21
447.100968
  0
LINE
  8
1
 62
7
  6
CONTINUOUS
 10
174.195856
 20
447.100968
 11
168.195856
 21
447.100968
  0
LINE
  8
1
 62
7
  6
CONTINUOUS
 10
162.178927
 20
415.500968
 11
168.195856
 21
415.500968
  0
LINE
  8
1
 62
7
  6
CONTINUOUS
 10
167.995856
 20
415.700968
 11
167.995856
 21
440.700968
  0
LINE
  8
1
 62
7
  6
CONTINUOUS
 10
162.395856
 20
415.700968
 11
167.995856
 21
415.700968
  0
LINE
  8
1
 62
7
  6
CONTINUOUS
 10
162.395856
 20
440.700968
 11
162.395856
 21
415.700968
  0
LINE
  8
1
 62
7
  6
CONTINUOUS
 10
167.803399
 20
446.320372
 11
167.803399
 21
441.300968
  0
LINE
  8
1
 62
7
  6
CONTINUOUS
 10
162.578927
 20
441.300968
 11
167.803399
 21
441.300968
  0
LINE
  8
1
 62
7
  6
CONTINUOUS
 10
162.578927
 20
446.320372
 11
162.578927
 21
441.300968
  0
LINE
  8
1
 62
7
  6
CONTINUOUS
 10
162.578927
 20
446.320372
 11
167.803399
 21
446.320372
  0
LINE
  8
1
 62
7
  6
CONTINUOUS
 10
162.178927
 20
446.724450
 11
168.203399
 21
446.724450
  0
LINE
  8
1
 62
7
  6
CONTINUOUS
 10
164.689124
 20
441.100968
 11
164.413002
 21
441.300794
  0
LINE
  8
1
 62
7
  6
CONTINUOUS
 10
165.793610
 20
441.100968
 11
166.044630
 21
441.300968
  0
LINE
  8
1
 62
7
  6
CONTINUOUS
 10
164.689124
 20
441.100968
 11
165.793610
 21
441.100968
  0
LINE
  8
1
 62
7
  6
CONTINUOUS
 10
162.395856
 20
440.700968
 11
167.995856
 21
440.700968
  0
LINE
  8
1
 62
7
  6
CONTINUOUS
 10
163.895856
 20
420.900968
 11
163.895856
 21
418.300968
  0
LINE
  8
1
 62
7
  6
CONTINUOUS
 10
163.895856
 20
418.300968
 11
166.495856
 21
418.300968
  0
LINE
  8
1
 62
7
  6
CONTINUOUS
 10
166.495856
 20
418.300968
 11
166.495856
 21
420.900968
  0
LINE
  8
1
 62
7
  6
CONTINUOUS
 10
166.495856
 20
420.900968
 11
163.895856
 21
420.900968
  0
LINE
  8
1
 62
7
  6
CONTINUOUS
 10
163.895856
 20
425.900968
 11
163.895856
 21
423.300968
  0
LINE
  8
1
 62
7
  6
CONTINUOUS
 10
163.895856
 20
423.300968
 11
166.495856
 21
423.300968
  0
LINE
  8
1
 62
7
  6
CONTINUOUS
 10
166.495856
 20
423.300968
 11
166.495856
 21
425.900968
  0
LINE
  8
1
 62
7
  6
CONTINUOUS
 10
166.495856
 20
425.900968
 11
163.895856
 21
425.900968
  0
CIRCLE
  8
1
 62
7
  6
CONTINUOUS
 10
165.195856
 20
429.600968
 40
0.500000
  0
CIRCLE
  8
1
 62
7
  6
CONTINUOUS
 10
165.195856
 20
433.600968
 40
0.500000
  0
CIRCLE
  8
1
 62
7
  6
CONTINUOUS
 10
165.195856
 20
437.600968
 40
0.500000
  0
LINE
  8
1
 62
7
  6
CONTINUOUS
 10
162.195856
 20
447.100968
 11
162.195856
 21
415.100968
  0
LINE
  8
1
 62
7
  6
CONTINUOUS
 10
162.195856
 20
415.100968
 11
168.195856
 21
415.100968
  0
LINE
  8
1
 62
7
  6
CONTINUOUS
 10
168.195856
 20
415.100968
 11
168.195856
 21
447.100968
  0
LINE
  8
1
 62
7
  6
CONTINUOUS
 10
168.195856
 20
447.100968
 11
162.195856
 21
447.100968
  0
LINE
  8
1
 62
7
  6
CONTINUOUS
 10
156.178927
 20
415.500968
 11
162.195856
 21
415.500968
  0
LINE
  8
1
 62
7
  6
CONTINUOUS
 10
161.995856
 20
415.700968
 11
161.995856
 21
440.700968
  0
LINE
  8
1
 62
7
  6
CONTINUOUS
 10
156.395856
 20
415.700968
 11
161.995856
 21
415.700968
  0
LINE
  8
1
 62
7
  6
CONTINUOUS
 10
156.395856
 20
440.700968
 11
156.395856
 21
415.700968
  0
LINE
  8
1
 62
7
  6
CONTINUOUS
 10
161.803399
 20
446.320372
 11
161.803399
 21
441.300968
  0
LINE
  8
1
 62
7
  6
CONTINUOUS
 10
156.578927
 20
441.300968
 11
161.803399
 21
441.300968
  0
LINE
  8
1
 62
7
  6
CONTINUOUS
 10
156.578927
 20
446.320372
 11
156.578927
 21
441.300968
  0
LINE
  8
1
 62
7
  6
CONTINUOUS
 10
156.578927
 20
446.320372
 11
161.803399
 21
446.320372
  0
LINE
  8
1
 62
7
  6
CONTINUOUS
 10
156.178927
 20
446.724450
 11
162.203399
 21
446.724450
  0
LINE
  8
1
 62
7
  6
CONTINUOUS
 10
158.689124
 20
441.100968
 11
158.413002
 21
441.300794
  0
LINE
  8
1
 62
7
  6
CONTINUOUS
 10
159.793610
 20
441.100968
 11
160.044630
 21
441.300968
  0
LINE
  8
1
 62
7
  6
CONTINUOUS
 10
158.689124
 20
441.100968
 11
159.793610
 21
441.100968
  0
LINE
  8
1
 62
7
  6
CONTINUOUS
 10
156.395856
 20
440.700968
 11
161.995856
 21
440.700968
  0
LINE
  8
1
 62
7
  6
CONTINUOUS
 10
157.895856
 20
420.900968
 11
157.895856
 21
418.300968
  0
LINE
  8
1
 62
7
  6
CONTINUOUS
 10
157.895856
 20
418.300968
 11
160.495856
 21
418.300968
  0
LINE
  8
1
 62
7
  6
CONTINUOUS
 10
160.495856
 20
418.300968
 11
160.495856
 21
420.900968
  0
LINE
  8
1
 62
7
  6
CONTINUOUS
 10
160.495856
 20
420.900968
 11
157.895856
 21
420.900968
  0
LINE
  8
1
 62
7
  6
CONTINUOUS
 10
157.895856
 20
425.900968
 11
157.895856
 21
423.300968
  0
LINE
  8
1
 62
7
  6
CONTINUOUS
 10
157.895856
 20
423.300968
 11
160.495856
 21
423.300968
  0
LINE
  8
1
 62
7
  6
CONTINUOUS
 10
160.495856
 20
423.300968
 11
160.495856
 21
425.900968
  0
LINE
  8
1
 62
7
  6
CONTINUOUS
 10
160.495856
 20
425.900968
 11
157.895856
 21
425.900968
  0
CIRCLE
  8
1
 62
7
  6
CONTINUOUS
 10
159.195856
 20
429.600968
 40
0.500000
  0
CIRCLE
  8
1
 62
7
  6
CONTINUOUS
 10
159.195856
 20
433.600968
 40
0.500000
  0
CIRCLE
  8
1
 62
7
  6
CONTINUOUS
 10
159.195856
 20
437.600968
 40
0.500000
  0
LINE
  8
1
 62
7
  6
CONTINUOUS
 10
156.195856
 20
447.100968
 11
156.195856
 21
415.100968
  0
LINE
  8
1
 62
7
  6
CONTINUOUS
 10
156.195856
 20
415.100968
 11
162.195856
 21
415.100968
  0
LINE
  8
1
 62
7
  6
CONTINUOUS
 10
162.195856
 20
415.100968
 11
162.195856
 21
447.100968
  0
LINE
  8
1
 62
7
  6
CONTINUOUS
 10
162.195856
 20
447.100968
 11
156.195856
 21
447.100968
  0
LINE
  8
1
 62
7
  6
CONTINUOUS
 10
155.995856
 20
415.700968
 11
155.995856
 21
440.700968
  0
LINE
  8
1
 62
7
  6
CONTINUOUS
 10
150.395856
 20
415.700968
 11
155.995856
 21
415.700968
  0
LINE
  8
1
 62
7
  6
CONTINUOUS
 10
150.395856
 20
440.700968
 11
150.395856
 21
415.700968
  0
LINE
  8
1
 62
7
  6
CONTINUOUS
 10
155.803399
 20
446.320372
 11
155.803399
 21
441.300968
  0
LINE
  8
1
 62
7
  6
CONTINUOUS
 10
150.578927
 20
441.300968
 11
155.803399
 21
441.300968
  0
LINE
  8
1
 62
7
  6
CONTINUOUS
 10
150.578927
 20
446.320372
 11
150.578927
 21
441.300968
  0
LINE
  8
1
 62
7
  6
CONTINUOUS
 10
150.578927
 20
446.320372
 11
155.803399
 21
446.320372
  0
LINE
  8
1
 62
7
  6
CONTINUOUS
 10
152.689124
 20
441.100968
 11
152.413002
 21
441.300794
  0
LINE
  8
1
 62
7
  6
CONTINUOUS
 10
153.793610
 20
441.100968
 11
154.044630
 21
441.300968
  0
LINE
  8
1
 62
7
  6
CONTINUOUS
 10
152.689124
 20
441.100968
 11
153.793610
 21
441.100968
  0
LINE
  8
1
 62
7
  6
CONTINUOUS
 10
150.395856
 20
440.700968
 11
155.995856
 21
440.700968
  0
LINE
  8
1
 62
7
  6
CONTINUOUS
 10
151.895856
 20
420.900968
 11
151.895856
 21
418.300968
  0
LINE
  8
1
 62
7
  6
CONTINUOUS
 10
151.895856
 20
418.300968
 11
154.495856
 21
418.300968
  0
LINE
  8
1
 62
7
  6
CONTINUOUS
 10
154.495856
 20
418.300968
 11
154.495856
 21
420.900968
  0
LINE
  8
1
 62
7
  6
CONTINUOUS
 10
154.495856
 20
420.900968
 11
151.895856
 21
420.900968
  0
LINE
  8
1
 62
7
  6
CONTINUOUS
 10
151.895856
 20
425.900968
 11
151.895856
 21
423.300968
  0
LINE
  8
1
 62
7
  6
CONTINUOUS
 10
151.895856
 20
423.300968
 11
154.495856
 21
423.300968
  0
LINE
  8
1
 62
7
  6
CONTINUOUS
 10
154.495856
 20
423.300968
 11
154.495856
 21
425.900968
  0
LINE
  8
1
 62
7
  6
CONTINUOUS
 10
154.495856
 20
425.900968
 11
151.895856
 21
425.900968
  0
CIRCLE
  8
1
 62
7
  6
CONTINUOUS
 10
153.195856
 20
429.600968
 40
0.500000
  0
CIRCLE
  8
1
 62
7
  6
CONTINUOUS
 10
153.195856
 20
433.600968
 40
0.500000
  0
CIRCLE
  8
1
 62
7
  6
CONTINUOUS
 10
153.195856
 20
437.600968
 40
0.500000
  0
LINE
  8
1
 62
7
  6
CONTINUOUS
 10
150.195856
 20
447.100968
 11
150.195856
 21
415.100968
  0
LINE
  8
1
 62
7
  6
CONTINUOUS
 10
150.195856
 20
415.100968
 11
156.195856
 21
415.100968
  0
LINE
  8
1
 62
7
  6
CONTINUOUS
 10
156.195856
 20
415.100968
 11
156.195856
 21
447.100968
  0
LINE
  8
1
 62
7
  6
CONTINUOUS
 10
156.195856
 20
447.100968
 11
150.195856
 21
447.100968
  0
LINE
  8
1
 62
7
  6
CONTINUOUS
 10
150.195856
 20
446.724450
 11
156.203399
 21
446.724450
  0
LINE
  8
1
 62
7
  6
CONTINUOUS
 10
150.195856
 20
415.500968
 11
156.195856
 21
415.500968
  0
LINE
  8
1
 62
7
  6
CONTINUOUS
 10
174.178927
 20
446.724450
 11
180.195856
 21
446.724450
  0
LINE
  8
1
 62
7
  6
CONTINUOUS
 10
204.178927
 20
415.500968
 11
210.195856
 21
415.500968
  0
LINE
  8
1
 62
7
  6
CONTINUOUS
 10
209.995856
 20
415.700968
 11
209.995856
 21
440.700968
  0
LINE
  8
1
 62
7
  6
CONTINUOUS
 10
204.395856
 20
415.700968
 11
209.995856
 21
415.700968
  0
LINE
  8
1
 62
7
  6
CONTINUOUS
 10
204.395856
 20
440.700968
 11
204.395856
 21
415.700968
  0
LINE
  8
1
 62
7
  6
CONTINUOUS
 10
209.803399
 20
446.320372
 11
209.803399
 21
441.300968
  0
LINE
  8
1
 62
7
  6
CONTINUOUS
 10
204.578927
 20
441.300968
 11
209.803399
 21
441.300968
  0
LINE
  8
1
 62
7
  6
CONTINUOUS
 10
204.578927
 20
446.320372
 11
204.578927
 21
441.300968
  0
LINE
  8
1
 62
7
  6
CONTINUOUS
 10
204.578927
 20
446.320372
 11
209.803399
 21
446.320372
  0
LINE
  8
1
 62
7
  6
CONTINUOUS
 10
206.689124
 20
441.100968
 11
206.413002
 21
441.300794
  0
LINE
  8
1
 62
7
  6
CONTINUOUS
 10
207.793610
 20
441.100968
 11
208.044630
 21
441.300968
  0
LINE
  8
1
 62
7
  6
CONTINUOUS
 10
206.689124
 20
441.100968
 11
207.793610
 21
441.100968
  0
LINE
  8
1
 62
7
  6
CONTINUOUS
 10
204.395856
 20
440.700968
 11
209.995856
 21
440.700968
  0
LINE
  8
1
 62
7
  6
CONTINUOUS
 10
205.895856
 20
420.900968
 11
205.895856
 21
418.300968
  0
LINE
  8
1
 62
7
  6
CONTINUOUS
 10
205.895856
 20
418.300968
 11
208.495856
 21
418.300968
  0
LINE
  8
1
 62
7
  6
CONTINUOUS
 10
208.495856
 20
418.300968
 11
208.495856
 21
420.900968
  0
LINE
  8
1
 62
7
  6
CONTINUOUS
 10
208.495856
 20
420.900968
 11
205.895856
 21
420.900968
  0
LINE
  8
1
 62
7
  6
CONTINUOUS
 10
205.895856
 20
425.900968
 11
205.895856
 21
423.300968
  0
LINE
  8
1
 62
7
  6
CONTINUOUS
 10
205.895856
 20
423.300968
 11
208.495856
 21
423.300968
  0
LINE
  8
1
 62
7
  6
CONTINUOUS
 10
208.495856
 20
423.300968
 11
208.495856
 21
425.900968
  0
LINE
  8
1
 62
7
  6
CONTINUOUS
 10
208.495856
 20
425.900968
 11
205.895856
 21
425.900968
  0
CIRCLE
  8
1
 62
7
  6
CONTINUOUS
 10
207.195856
 20
429.600968
 40
0.500000
  0
CIRCLE
  8
1
 62
7
  6
CONTINUOUS
 10
207.195856
 20
433.600968
 40
0.500000
  0
CIRCLE
  8
1
 62
7
  6
CONTINUOUS
 10
207.195856
 20
437.600968
 40
0.500000
  0
LINE
  8
1
 62
7
  6
CONTINUOUS
 10
204.195856
 20
447.100968
 11
204.195856
 21
415.100968
  0
LINE
  8
1
 62
7
  6
CONTINUOUS
 10
204.195856
 20
415.100968
 11
210.195856
 21
415.100968
  0
LINE
  8
1
 62
7
  6
CONTINUOUS
 10
210.195856
 20
415.100968
 11
210.195856
 21
447.100968
  0
LINE
  8
1
 62
7
  6
CONTINUOUS
 10
210.195856
 20
447.100968
 11
204.195856
 21
447.100968
  0
LINE
  8
1
 62
7
  6
CONTINUOUS
 10
198.178927
 20
415.500968
 11
204.195856
 21
415.500968
  0
LINE
  8
1
 62
7
  6
CONTINUOUS
 10
203.995856
 20
415.700968
 11
203.995856
 21
440.700968
  0
LINE
  8
1
 62
7
  6
CONTINUOUS
 10
198.395856
 20
415.700968
 11
203.995856
 21
415.700968
  0
LINE
  8
1
 62
7
  6
CONTINUOUS
 10
198.395856
 20
440.700968
 11
198.395856
 21
415.700968
  0
LINE
  8
1
 62
7
  6
CONTINUOUS
 10
203.803399
 20
446.320372
 11
203.803399
 21
441.300968
  0
LINE
  8
1
 62
7
  6
CONTINUOUS
 10
198.578927
 20
441.300968
 11
203.803399
 21
441.300968
  0
LINE
  8
1
 62
7
  6
CONTINUOUS
 10
198.578927
 20
446.320372
 11
198.578927
 21
441.300968
  0
LINE
  8
1
 62
7
  6
CONTINUOUS
 10
198.578927
 20
446.320372
 11
203.803399
 21
446.320372
  0
LINE
  8
1
 62
7
  6
CONTINUOUS
 10
198.178927
 20
446.724450
 11
204.203399
 21
446.724450
  0
LINE
  8
1
 62
7
  6
CONTINUOUS
 10
200.689124
 20
441.100968
 11
200.413002
 21
441.300794
  0
LINE
  8
1
 62
7
  6
CONTINUOUS
 10
201.793610
 20
441.100968
 11
202.044630
 21
441.300968
  0
LINE
  8
1
 62
7
  6
CONTINUOUS
 10
200.689124
 20
441.100968
 11
201.793610
 21
441.100968
  0
LINE
  8
1
 62
7
  6
CONTINUOUS
 10
198.395856
 20
440.700968
 11
203.995856
 21
440.700968
  0
LINE
  8
1
 62
7
  6
CONTINUOUS
 10
199.895856
 20
420.900968
 11
199.895856
 21
418.300968
  0
LINE
  8
1
 62
7
  6
CONTINUOUS
 10
199.895856
 20
418.300968
 11
202.495856
 21
418.300968
  0
LINE
  8
1
 62
7
  6
CONTINUOUS
 10
202.495856
 20
418.300968
 11
202.495856
 21
420.900968
  0
LINE
  8
1
 62
7
  6
CONTINUOUS
 10
202.495856
 20
420.900968
 11
199.895856
 21
420.900968
  0
LINE
  8
1
 62
7
  6
CONTINUOUS
 10
199.895856
 20
425.900968
 11
199.895856
 21
423.300968
  0
LINE
  8
1
 62
7
  6
CONTINUOUS
 10
199.895856
 20
423.300968
 11
202.495856
 21
423.300968
  0
LINE
  8
1
 62
7
  6
CONTINUOUS
 10
202.495856
 20
423.300968
 11
202.495856
 21
425.900968
  0
LINE
  8
1
 62
7
  6
CONTINUOUS
 10
202.495856
 20
425.900968
 11
199.895856
 21
425.900968
  0
CIRCLE
  8
1
 62
7
  6
CONTINUOUS
 10
201.195856
 20
429.600968
 40
0.500000
  0
CIRCLE
  8
1
 62
7
  6
CONTINUOUS
 10
201.195856
 20
433.600968
 40
0.500000
  0
CIRCLE
  8
1
 62
7
  6
CONTINUOUS
 10
201.195856
 20
437.600968
 40
0.500000
  0
LINE
  8
1
 62
7
  6
CONTINUOUS
 10
198.195856
 20
447.100968
 11
198.195856
 21
415.100968
  0
LINE
  8
1
 62
7
  6
CONTINUOUS
 10
198.195856
 20
415.100968
 11
204.195856
 21
415.100968
  0
LINE
  8
1
 62
7
  6
CONTINUOUS
 10
204.195856
 20
415.100968
 11
204.195856
 21
447.100968
  0
LINE
  8
1
 62
7
  6
CONTINUOUS
 10
204.195856
 20
447.100968
 11
198.195856
 21
447.100968
  0
LINE
  8
1
 62
7
  6
CONTINUOUS
 10
192.178927
 20
415.500968
 11
198.195856
 21
415.500968
  0
LINE
  8
1
 62
7
  6
CONTINUOUS
 10
197.995856
 20
415.700968
 11
197.995856
 21
440.700968
  0
LINE
  8
1
 62
7
  6
CONTINUOUS
 10
192.395856
 20
415.700968
 11
197.995856
 21
415.700968
  0
LINE
  8
1
 62
7
  6
CONTINUOUS
 10
192.395856
 20
440.700968
 11
192.395856
 21
415.700968
  0
LINE
  8
1
 62
7
  6
CONTINUOUS
 10
197.803399
 20
446.320372
 11
197.803399
 21
441.300968
  0
LINE
  8
1
 62
7
  6
CONTINUOUS
 10
192.578927
 20
441.300968
 11
197.803399
 21
441.300968
  0
LINE
  8
1
 62
7
  6
CONTINUOUS
 10
192.578927
 20
446.320372
 11
192.578927
 21
441.300968
  0
LINE
  8
1
 62
7
  6
CONTINUOUS
 10
192.578927
 20
446.320372
 11
197.803399
 21
446.320372
  0
LINE
  8
1
 62
7
  6
CONTINUOUS
 10
192.178927
 20
446.724450
 11
198.203399
 21
446.724450
  0
LINE
  8
1
 62
7
  6
CONTINUOUS
 10
194.689124
 20
441.100968
 11
194.413002
 21
441.300794
  0
LINE
  8
1
 62
7
  6
CONTINUOUS
 10
195.793610
 20
441.100968
 11
196.044630
 21
441.300968
  0
LINE
  8
1
 62
7
  6
CONTINUOUS
 10
194.689124
 20
441.100968
 11
195.793610
 21
441.100968
  0
LINE
  8
1
 62
7
  6
CONTINUOUS
 10
192.395856
 20
440.700968
 11
197.995856
 21
440.700968
  0
LINE
  8
1
 62
7
  6
CONTINUOUS
 10
193.895856
 20
420.900968
 11
193.895856
 21
418.300968
  0
LINE
  8
1
 62
7
  6
CONTINUOUS
 10
193.895856
 20
418.300968
 11
196.495856
 21
418.300968
  0
LINE
  8
1
 62
7
  6
CONTINUOUS
 10
196.495856
 20
418.300968
 11
196.495856
 21
420.900968
  0
LINE
  8
1
 62
7
  6
CONTINUOUS
 10
196.495856
 20
420.900968
 11
193.895856
 21
420.900968
  0
LINE
  8
1
 62
7
  6
CONTINUOUS
 10
193.895856
 20
425.900968
 11
193.895856
 21
423.300968
  0
LINE
  8
1
 62
7
  6
CONTINUOUS
 10
193.895856
 20
423.300968
 11
196.495856
 21
423.300968
  0
LINE
  8
1
 62
7
  6
CONTINUOUS
 10
196.495856
 20
423.300968
 11
196.495856
 21
425.900968
  0
LINE
  8
1
 62
7
  6
CONTINUOUS
 10
196.495856
 20
425.900968
 11
193.895856
 21
425.900968
  0
CIRCLE
  8
1
 62
7
  6
CONTINUOUS
 10
195.195856
 20
429.600968
 40
0.500000
  0
CIRCLE
  8
1
 62
7
  6
CONTINUOUS
 10
195.195856
 20
433.600968
 40
0.500000
  0
CIRCLE
  8
1
 62
7
  6
CONTINUOUS
 10
195.195856
 20
437.600968
 40
0.500000
  0
LINE
  8
1
 62
7
  6
CONTINUOUS
 10
192.195856
 20
447.100968
 11
192.195856
 21
415.100968
  0
LINE
  8
1
 62
7
  6
CONTINUOUS
 10
192.195856
 20
415.100968
 11
198.195856
 21
415.100968
  0
LINE
  8
1
 62
7
  6
CONTINUOUS
 10
198.195856
 20
415.100968
 11
198.195856
 21
447.100968
  0
LINE
  8
1
 62
7
  6
CONTINUOUS
 10
198.195856
 20
447.100968
 11
192.195856
 21
447.100968
  0
LINE
  8
1
 62
7
  6
CONTINUOUS
 10
186.178927
 20
415.500968
 11
192.195856
 21
415.500968
  0
LINE
  8
1
 62
7
  6
CONTINUOUS
 10
191.995856
 20
415.700968
 11
191.995856
 21
440.700968
  0
LINE
  8
1
 62
7
  6
CONTINUOUS
 10
186.395856
 20
415.700968
 11
191.995856
 21
415.700968
  0
LINE
  8
1
 62
7
  6
CONTINUOUS
 10
186.395856
 20
440.700968
 11
186.395856
 21
415.700968
  0
LINE
  8
1
 62
7
  6
CONTINUOUS
 10
191.803399
 20
446.320372
 11
191.803399
 21
441.300968
  0
LINE
  8
1
 62
7
  6
CONTINUOUS
 10
186.578927
 20
441.300968
 11
191.803399
 21
441.300968
  0
LINE
  8
1
 62
7
  6
CONTINUOUS
 10
186.578927
 20
446.320372
 11
186.578927
 21
441.300968
  0
LINE
  8
1
 62
7
  6
CONTINUOUS
 10
186.578927
 20
446.320372
 11
191.803399
 21
446.320372
  0
LINE
  8
1
 62
7
  6
CONTINUOUS
 10
186.178927
 20
446.724450
 11
192.203399
 21
446.724450
  0
LINE
  8
1
 62
7
  6
CONTINUOUS
 10
188.689124
 20
441.100968
 11
188.413002
 21
441.300794
  0
LINE
  8
1
 62
7
  6
CONTINUOUS
 10
189.793610
 20
441.100968
 11
190.044630
 21
441.300968
  0
LINE
  8
1
 62
7
  6
CONTINUOUS
 10
188.689124
 20
441.100968
 11
189.793610
 21
441.100968
  0
LINE
  8
1
 62
7
  6
CONTINUOUS
 10
186.395856
 20
440.700968
 11
191.995856
 21
440.700968
  0
LINE
  8
1
 62
7
  6
CONTINUOUS
 10
187.895856
 20
420.900968
 11
187.895856
 21
418.300968
  0
LINE
  8
1
 62
7
  6
CONTINUOUS
 10
187.895856
 20
418.300968
 11
190.495856
 21
418.300968
  0
LINE
  8
1
 62
7
  6
CONTINUOUS
 10
190.495856
 20
418.300968
 11
190.495856
 21
420.900968
  0
LINE
  8
1
 62
7
  6
CONTINUOUS
 10
190.495856
 20
420.900968
 11
187.895856
 21
420.900968
  0
LINE
  8
1
 62
7
  6
CONTINUOUS
 10
187.895856
 20
425.900968
 11
187.895856
 21
423.300968
  0
LINE
  8
1
 62
7
  6
CONTINUOUS
 10
187.895856
 20
423.300968
 11
190.495856
 21
423.300968
  0
LINE
  8
1
 62
7
  6
CONTINUOUS
 10
190.495856
 20
423.300968
 11
190.495856
 21
425.900968
  0
LINE
  8
1
 62
7
  6
CONTINUOUS
 10
190.495856
 20
425.900968
 11
187.895856
 21
425.900968
  0
CIRCLE
  8
1
 62
7
  6
CONTINUOUS
 10
189.195856
 20
429.600968
 40
0.500000
  0
CIRCLE
  8
1
 62
7
  6
CONTINUOUS
 10
189.195856
 20
433.600968
 40
0.500000
  0
CIRCLE
  8
1
 62
7
  6
CONTINUOUS
 10
189.195856
 20
437.600968
 40
0.500000
  0
LINE
  8
1
 62
7
  6
CONTINUOUS
 10
186.195856
 20
447.100968
 11
186.195856
 21
415.100968
  0
LINE
  8
1
 62
7
  6
CONTINUOUS
 10
186.195856
 20
415.100968
 11
192.195856
 21
415.100968
  0
LINE
  8
1
 62
7
  6
CONTINUOUS
 10
192.195856
 20
415.100968
 11
192.195856
 21
447.100968
  0
LINE
  8
1
 62
7
  6
CONTINUOUS
 10
192.195856
 20
447.100968
 11
186.195856
 21
447.100968
  0
LINE
  8
1
 62
7
  6
CONTINUOUS
 10
185.995856
 20
415.700968
 11
185.995856
 21
440.700968
  0
LINE
  8
1
 62
7
  6
CONTINUOUS
 10
180.395856
 20
415.700968
 11
185.995856
 21
415.700968
  0
LINE
  8
1
 62
7
  6
CONTINUOUS
 10
180.395856
 20
440.700968
 11
180.395856
 21
415.700968
  0
LINE
  8
1
 62
7
  6
CONTINUOUS
 10
185.803399
 20
446.320372
 11
185.803399
 21
441.300968
  0
LINE
  8
1
 62
7
  6
CONTINUOUS
 10
180.578927
 20
441.300968
 11
185.803399
 21
441.300968
  0
LINE
  8
1
 62
7
  6
CONTINUOUS
 10
180.578927
 20
446.320372
 11
180.578927
 21
441.300968
  0
LINE
  8
1
 62
7
  6
CONTINUOUS
 10
180.578927
 20
446.320372
 11
185.803399
 21
446.320372
  0
LINE
  8
1
 62
7
  6
CONTINUOUS
 10
182.689124
 20
441.100968
 11
182.413002
 21
441.300794
  0
LINE
  8
1
 62
7
  6
CONTINUOUS
 10
183.793610
 20
441.100968
 11
184.044630
 21
441.300968
  0
LINE
  8
1
 62
7
  6
CONTINUOUS
 10
182.689124
 20
441.100968
 11
183.793610
 21
441.100968
  0
LINE
  8
1
 62
7
  6
CONTINUOUS
 10
180.395856
 20
440.700968
 11
185.995856
 21
440.700968
  0
LINE
  8
1
 62
7
  6
CONTINUOUS
 10
181.895856
 20
420.900968
 11
181.895856
 21
418.300968
  0
LINE
  8
1
 62
7
  6
CONTINUOUS
 10
181.895856
 20
418.300968
 11
184.495856
 21
418.300968
  0
LINE
  8
1
 62
7
  6
CONTINUOUS
 10
184.495856
 20
418.300968
 11
184.495856
 21
420.900968
  0
LINE
  8
1
 62
7
  6
CONTINUOUS
 10
184.495856
 20
420.900968
 11
181.895856
 21
420.900968
  0
LINE
  8
1
 62
7
  6
CONTINUOUS
 10
181.895856
 20
425.900968
 11
181.895856
 21
423.300968
  0
LINE
  8
1
 62
7
  6
CONTINUOUS
 10
181.895856
 20
423.300968
 11
184.495856
 21
423.300968
  0
LINE
  8
1
 62
7
  6
CONTINUOUS
 10
184.495856
 20
423.300968
 11
184.495856
 21
425.900968
  0
LINE
  8
1
 62
7
  6
CONTINUOUS
 10
184.495856
 20
425.900968
 11
181.895856
 21
425.900968
  0
CIRCLE
  8
1
 62
7
  6
CONTINUOUS
 10
183.195856
 20
429.600968
 40
0.500000
  0
CIRCLE
  8
1
 62
7
  6
CONTINUOUS
 10
183.195856
 20
433.600968
 40
0.500000
  0
CIRCLE
  8
1
 62
7
  6
CONTINUOUS
 10
183.195856
 20
437.600968
 40
0.500000
  0
LINE
  8
1
 62
7
  6
CONTINUOUS
 10
180.195856
 20
447.100968
 11
180.195856
 21
415.100968
  0
LINE
  8
1
 62
7
  6
CONTINUOUS
 10
180.195856
 20
415.100968
 11
186.195856
 21
415.100968
  0
LINE
  8
1
 62
7
  6
CONTINUOUS
 10
186.195856
 20
415.100968
 11
186.195856
 21
447.100968
  0
LINE
  8
1
 62
7
  6
CONTINUOUS
 10
186.195856
 20
447.100968
 11
180.195856
 21
447.100968
  0
LINE
  8
1
 62
7
  6
CONTINUOUS
 10
180.195856
 20
446.724450
 11
186.203399
 21
446.724450
  0
LINE
  8
1
 62
7
  6
CONTINUOUS
 10
180.195856
 20
415.500968
 11
186.195856
 21
415.500968
  0
LINE
  8
1
 62
7
  6
CONTINUOUS
 10
204.178927
 20
446.724450
 11
210.195856
 21
446.724450
  0
LINE
  8
1
 62
7
  6
CONTINUOUS
 10
209.995856
 20
339.824450
 11
150.195856
 21
339.824450
  0
LINE
  8
1
 62
7
  6
CONTINUOUS
 10
150.195856
 20
370.724450
 11
209.995856
 21
370.724450
  0
LINE
  8
1
 62
7
  6
CONTINUOUS
 10
209.995856
 20
370.724450
 11
209.995856
 21
339.824450
  0
LINE
  8
1
 62
7
  6
CONTINUOUS
 10
150.195856
 20
339.824450
 11
150.195856
 21
370.724450
  0
LINE
  8
1
 62
7
  6
CONTINUOUS
 10
210.545856
 20
294.974660
 11
179.645856
 21
294.974660
  0
LINE
  8
1
 62
7
  6
CONTINUOUS
 10
210.545856
 20
289.174660
 11
210.545856
 21
294.974660
  0
LINE
  8
1
 62
7
  6
CONTINUOUS
 10
179.645856
 20
289.174660
 11
210.545856
 21
289.174660
  0
LINE
  8
1
 62
7
  6
CONTINUOUS
 10
179.645856
 20
294.974660
 11
179.645856
 21
289.174660
  0
LINE
  8
1
 62
7
  6
CONTINUOUS
 10
209.995856
 20
301.824450
 11
150.195856
 21
301.824450
  0
LINE
  8
1
 62
7
  6
CONTINUOUS
 10
150.195856
 20
332.724450
 11
209.995856
 21
332.724450
  0
LINE
  8
1
 62
7
  6
CONTINUOUS
 10
209.995856
 20
332.724450
 11
209.995856
 21
301.824450
  0
LINE
  8
1
 62
7
  6
CONTINUOUS
 10
150.195856
 20
301.824450
 11
150.195856
 21
332.724450
  0
LINE
  8
1
 62
7
  6
CONTINUOUS
 10
209.995856
 20
377.824450
 11
150.195856
 21
377.824450
  0
LINE
  8
1
 62
7
  6
CONTINUOUS
 10
150.195856
 20
408.724450
 11
209.995856
 21
408.724450
  0
LINE
  8
1
 62
7
  6
CONTINUOUS
 10
209.995856
 20
408.724450
 11
209.995856
 21
377.824450
  0
LINE
  8
1
 62
7
  6
CONTINUOUS
 10
150.195856
 20
377.824450
 11
150.195856
 21
408.724450
  0
LINE
  8
1
 62
7
  6
CONTINUOUS
 10
174.178927
 20
377.500968
 11
180.195856
 21
377.500968
  0
LINE
  8
1
 62
7
  6
CONTINUOUS
 10
179.995856
 20
377.700968
 11
179.995856
 21
402.700968
  0
LINE
  8
1
 62
7
  6
CONTINUOUS
 10
174.395856
 20
377.700968
 11
179.995856
 21
377.700968
  0
LINE
  8
1
 62
7
  6
CONTINUOUS
 10
174.395856
 20
402.700968
 11
174.395856
 21
377.700968
  0
LINE
  8
1
 62
7
  6
CONTINUOUS
 10
179.803399
 20
408.320372
 11
179.803399
 21
403.300968
  0
LINE
  8
1
 62
7
  6
CONTINUOUS
 10
174.578927
 20
403.300968
 11
179.803399
 21
403.300968
  0
LINE
  8
1
 62
7
  6
CONTINUOUS
 10
174.578927
 20
408.320372
 11
174.578927
 21
403.300968
  0
LINE
  8
1
 62
7
  6
CONTINUOUS
 10
174.578927
 20
408.320372
 11
179.803399
 21
408.320372
  0
LINE
  8
1
 62
7
  6
CONTINUOUS
 10
176.689124
 20
403.100968
 11
176.413002
 21
403.300794
  0
LINE
  8
1
 62
7
  6
CONTINUOUS
 10
177.793610
 20
403.100968
 11
178.044630
 21
403.300968
  0
LINE
  8
1
 62
7
  6
CONTINUOUS
 10
176.689124
 20
403.100968
 11
177.793610
 21
403.100968
  0
LINE
  8
1
 62
7
  6
CONTINUOUS
 10
174.395856
 20
402.700968
 11
179.995856
 21
402.700968
  0
LINE
  8
1
 62
7
  6
CONTINUOUS
 10
175.895856
 20
382.900968
 11
175.895856
 21
380.300968
  0
LINE
  8
1
 62
7
  6
CONTINUOUS
 10
175.895856
 20
380.300968
 11
178.495856
 21
380.300968
  0
LINE
  8
1
 62
7
  6
CONTINUOUS
 10
178.495856
 20
380.300968
 11
178.495856
 21
382.900968
  0
LINE
  8
1
 62
7
  6
CONTINUOUS
 10
178.495856
 20
382.900968
 11
175.895856
 21
382.900968
  0
LINE
  8
1
 62
7
  6
CONTINUOUS
 10
175.895856
 20
387.900968
 11
175.895856
 21
385.300968
  0
LINE
  8
1
 62
7
  6
CONTINUOUS
 10
175.895856
 20
385.300968
 11
178.495856
 21
385.300968
  0
LINE
  8
1
 62
7
  6
CONTINUOUS
 10
178.495856
 20
385.300968
 11
178.495856
 21
387.900968
  0
LINE
  8
1
 62
7
  6
CONTINUOUS
 10
178.495856
 20
387.900968
 11
175.895856
 21
387.900968
  0
CIRCLE
  8
1
 62
7
  6
CONTINUOUS
 10
177.195856
 20
391.600968
 40
0.500000
  0
CIRCLE
  8
1
 62
7
  6
CONTINUOUS
 10
177.195856
 20
395.600968
 40
0.500000
  0
CIRCLE
  8
1
 62
7
  6
CONTINUOUS
 10
177.195856
 20
399.600968
 40
0.500000
  0
LINE
  8
1
 62
7
  6
CONTINUOUS
 10
174.195856
 20
409.100968
 11
174.195856
 21
377.100968
  0
LINE
  8
1
 62
7
  6
CONTINUOUS
 10
174.195856
 20
377.100968
 11
180.195856
 21
377.100968
  0
LINE
  8
1
 62
7
  6
CONTINUOUS
 10
180.195856
 20
377.100968
 11
180.195856
 21
409.100968
  0
LINE
  8
1
 62
7
  6
CONTINUOUS
 10
180.195856
 20
409.100968
 11
174.195856
 21
409.100968
  0
LINE
  8
1
 62
7
  6
CONTINUOUS
 10
168.178927
 20
377.500968
 11
174.195856
 21
377.500968
  0
LINE
  8
1
 62
7
  6
CONTINUOUS
 10
173.995856
 20
377.700968
 11
173.995856
 21
402.700968
  0
LINE
  8
1
 62
7
  6
CONTINUOUS
 10
168.395856
 20
377.700968
 11
173.995856
 21
377.700968
  0
LINE
  8
1
 62
7
  6
CONTINUOUS
 10
168.395856
 20
402.700968
 11
168.395856
 21
377.700968
  0
LINE
  8
1
 62
7
  6
CONTINUOUS
 10
173.803399
 20
408.320372
 11
173.803399
 21
403.300968
  0
LINE
  8
1
 62
7
  6
CONTINUOUS
 10
168.578927
 20
403.300968
 11
173.803399
 21
403.300968
  0
LINE
  8
1
 62
7
  6
CONTINUOUS
 10
168.578927
 20
408.320372
 11
168.578927
 21
403.300968
  0
LINE
  8
1
 62
7
  6
CONTINUOUS
 10
168.578927
 20
408.320372
 11
173.803399
 21
408.320372
  0
LINE
  8
1
 62
7
  6
CONTINUOUS
 10
168.178927
 20
408.724450
 11
174.203399
 21
408.724450
  0
LINE
  8
1
 62
7
  6
CONTINUOUS
 10
170.689124
 20
403.100968
 11
170.413002
 21
403.300794
  0
LINE
  8
1
 62
7
  6
CONTINUOUS
 10
171.793610
 20
403.100968
 11
172.044630
 21
403.300968
  0
LINE
  8
1
 62
7
  6
CONTINUOUS
 10
170.689124
 20
403.100968
 11
171.793610
 21
403.100968
  0
LINE
  8
1
 62
7
  6
CONTINUOUS
 10
168.395856
 20
402.700968
 11
173.995856
 21
402.700968
  0
LINE
  8
1
 62
7
  6
CONTINUOUS
 10
169.895856
 20
382.900968
 11
169.895856
 21
380.300968
  0
LINE
  8
1
 62
7
  6
CONTINUOUS
 10
169.895856
 20
380.300968
 11
172.495856
 21
380.300968
  0
LINE
  8
1
 62
7
  6
CONTINUOUS
 10
172.495856
 20
380.300968
 11
172.495856
 21
382.900968
  0
LINE
  8
1
 62
7
  6
CONTINUOUS
 10
172.495856
 20
382.900968
 11
169.895856
 21
382.900968
  0
LINE
  8
1
 62
7
  6
CONTINUOUS
 10
169.895856
 20
387.900968
 11
169.895856
 21
385.300968
  0
LINE
  8
1
 62
7
  6
CONTINUOUS
 10
169.895856
 20
385.300968
 11
172.495856
 21
385.300968
  0
LINE
  8
1
 62
7
  6
CONTINUOUS
 10
172.495856
 20
385.300968
 11
172.495856
 21
387.900968
  0
LINE
  8
1
 62
7
  6
CONTINUOUS
 10
172.495856
 20
387.900968
 11
169.895856
 21
387.900968
  0
CIRCLE
  8
1
 62
7
  6
CONTINUOUS
 10
171.195856
 20
391.600968
 40
0.500000
  0
CIRCLE
  8
1
 62
7
  6
CONTINUOUS
 10
171.195856
 20
395.600968
 40
0.500000
  0
CIRCLE
  8
1
 62
7
  6
CONTINUOUS
 10
171.195856
 20
399.600968
 40
0.500000
  0
LINE
  8
1
 62
7
  6
CONTINUOUS
 10
168.195856
 20
409.100968
 11
168.195856
 21
377.100968
  0
LINE
  8
1
 62
7
  6
CONTINUOUS
 10
168.195856
 20
377.100968
 11
174.195856
 21
377.100968
  0
LINE
  8
1
 62
7
  6
CONTINUOUS
 10
174.195856
 20
377.100968
 11
174.195856
 21
409.100968
  0
LINE
  8
1
 62
7
  6
CONTINUOUS
 10
174.195856
 20
409.100968
 11
168.195856
 21
409.100968
  0
LINE
  8
1
 62
7
  6
CONTINUOUS
 10
162.178927
 20
377.500968
 11
168.195856
 21
377.500968
  0
LINE
  8
1
 62
7
  6
CONTINUOUS
 10
167.995856
 20
377.700968
 11
167.995856
 21
402.700968
  0
LINE
  8
1
 62
7
  6
CONTINUOUS
 10
162.395856
 20
377.700968
 11
167.995856
 21
377.700968
  0
LINE
  8
1
 62
7
  6
CONTINUOUS
 10
162.395856
 20
402.700968
 11
162.395856
 21
377.700968
  0
LINE
  8
1
 62
7
  6
CONTINUOUS
 10
167.803399
 20
408.320372
 11
167.803399
 21
403.300968
  0
LINE
  8
1
 62
7
  6
CONTINUOUS
 10
162.578927
 20
403.300968
 11
167.803399
 21
403.300968
  0
LINE
  8
1
 62
7
  6
CONTINUOUS
 10
162.578927
 20
408.320372
 11
162.578927
 21
403.300968
  0
LINE
  8
1
 62
7
  6
CONTINUOUS
 10
162.578927
 20
408.320372
 11
167.803399
 21
408.320372
  0
LINE
  8
1
 62
7
  6
CONTINUOUS
 10
162.178927
 20
408.724450
 11
168.203399
 21
408.724450
  0
LINE
  8
1
 62
7
  6
CONTINUOUS
 10
164.689124
 20
403.100968
 11
164.413002
 21
403.300794
  0
LINE
  8
1
 62
7
  6
CONTINUOUS
 10
165.793610
 20
403.100968
 11
166.044630
 21
403.300968
  0
LINE
  8
1
 62
7
  6
CONTINUOUS
 10
164.689124
 20
403.100968
 11
165.793610
 21
403.100968
  0
LINE
  8
1
 62
7
  6
CONTINUOUS
 10
162.395856
 20
402.700968
 11
167.995856
 21
402.700968
  0
LINE
  8
1
 62
7
  6
CONTINUOUS
 10
163.895856
 20
382.900968
 11
163.895856
 21
380.300968
  0
LINE
  8
1
 62
7
  6
CONTINUOUS
 10
163.895856
 20
380.300968
 11
166.495856
 21
380.300968
  0
LINE
  8
1
 62
7
  6
CONTINUOUS
 10
166.495856
 20
380.300968
 11
166.495856
 21
382.900968
  0
LINE
  8
1
 62
7
  6
CONTINUOUS
 10
166.495856
 20
382.900968
 11
163.895856
 21
382.900968
  0
LINE
  8
1
 62
7
  6
CONTINUOUS
 10
163.895856
 20
387.900968
 11
163.895856
 21
385.300968
  0
LINE
  8
1
 62
7
  6
CONTINUOUS
 10
163.895856
 20
385.300968
 11
166.495856
 21
385.300968
  0
LINE
  8
1
 62
7
  6
CONTINUOUS
 10
166.495856
 20
385.300968
 11
166.495856
 21
387.900968
  0
LINE
  8
1
 62
7
  6
CONTINUOUS
 10
166.495856
 20
387.900968
 11
163.895856
 21
387.900968
  0
CIRCLE
  8
1
 62
7
  6
CONTINUOUS
 10
165.195856
 20
391.600968
 40
0.500000
  0
CIRCLE
  8
1
 62
7
  6
CONTINUOUS
 10
165.195856
 20
395.600968
 40
0.500000
  0
CIRCLE
  8
1
 62
7
  6
CONTINUOUS
 10
165.195856
 20
399.600968
 40
0.500000
  0
LINE
  8
1
 62
7
  6
CONTINUOUS
 10
162.195856
 20
409.100968
 11
162.195856
 21
377.100968
  0
LINE
  8
1
 62
7
  6
CONTINUOUS
 10
162.195856
 20
377.100968
 11
168.195856
 21
377.100968
  0
LINE
  8
1
 62
7
  6
CONTINUOUS
 10
168.195856
 20
377.100968
 11
168.195856
 21
409.100968
  0
LINE
  8
1
 62
7
  6
CONTINUOUS
 10
168.195856
 20
409.100968
 11
162.195856
 21
409.100968
  0
LINE
  8
1
 62
7
  6
CONTINUOUS
 10
156.178927
 20
377.500968
 11
162.195856
 21
377.500968
  0
LINE
  8
1
 62
7
  6
CONTINUOUS
 10
161.995856
 20
377.700968
 11
161.995856
 21
402.700968
  0
LINE
  8
1
 62
7
  6
CONTINUOUS
 10
156.395856
 20
377.700968
 11
161.995856
 21
377.700968
  0
LINE
  8
1
 62
7
  6
CONTINUOUS
 10
156.395856
 20
402.700968
 11
156.395856
 21
377.700968
  0
LINE
  8
1
 62
7
  6
CONTINUOUS
 10
161.803399
 20
408.320372
 11
161.803399
 21
403.300968
  0
LINE
  8
1
 62
7
  6
CONTINUOUS
 10
156.578927
 20
403.300968
 11
161.803399
 21
403.300968
  0
LINE
  8
1
 62
7
  6
CONTINUOUS
 10
156.578927
 20
408.320372
 11
156.578927
 21
403.300968
  0
LINE
  8
1
 62
7
  6
CONTINUOUS
 10
156.578927
 20
408.320372
 11
161.803399
 21
408.320372
  0
LINE
  8
1
 62
7
  6
CONTINUOUS
 10
156.178927
 20
408.724450
 11
162.203399
 21
408.724450
  0
LINE
  8
1
 62
7
  6
CONTINUOUS
 10
158.689124
 20
403.100968
 11
158.413002
 21
403.300794
  0
LINE
  8
1
 62
7
  6
CONTINUOUS
 10
159.793610
 20
403.100968
 11
160.044630
 21
403.300968
  0
LINE
  8
1
 62
7
  6
CONTINUOUS
 10
158.689124
 20
403.100968
 11
159.793610
 21
403.100968
  0
LINE
  8
1
 62
7
  6
CONTINUOUS
 10
156.395856
 20
402.700968
 11
161.995856
 21
402.700968
  0
LINE
  8
1
 62
7
  6
CONTINUOUS
 10
157.895856
 20
382.900968
 11
157.895856
 21
380.300968
  0
LINE
  8
1
 62
7
  6
CONTINUOUS
 10
157.895856
 20
380.300968
 11
160.495856
 21
380.300968
  0
LINE
  8
1
 62
7
  6
CONTINUOUS
 10
160.495856
 20
380.300968
 11
160.495856
 21
382.900968
  0
LINE
  8
1
 62
7
  6
CONTINUOUS
 10
160.495856
 20
382.900968
 11
157.895856
 21
382.900968
  0
LINE
  8
1
 62
7
  6
CONTINUOUS
 10
157.895856
 20
387.900968
 11
157.895856
 21
385.300968
  0
LINE
  8
1
 62
7
  6
CONTINUOUS
 10
157.895856
 20
385.300968
 11
160.495856
 21
385.300968
  0
LINE
  8
1
 62
7
  6
CONTINUOUS
 10
160.495856
 20
385.300968
 11
160.495856
 21
387.900968
  0
LINE
  8
1
 62
7
  6
CONTINUOUS
 10
160.495856
 20
387.900968
 11
157.895856
 21
387.900968
  0
CIRCLE
  8
1
 62
7
  6
CONTINUOUS
 10
159.195856
 20
391.600968
 40
0.500000
  0
CIRCLE
  8
1
 62
7
  6
CONTINUOUS
 10
159.195856
 20
395.600968
 40
0.500000
  0
CIRCLE
  8
1
 62
7
  6
CONTINUOUS
 10
159.195856
 20
399.600968
 40
0.500000
  0
LINE
  8
1
 62
7
  6
CONTINUOUS
 10
156.195856
 20
409.100968
 11
156.195856
 21
377.100968
  0
LINE
  8
1
 62
7
  6
CONTINUOUS
 10
156.195856
 20
377.100968
 11
162.195856
 21
377.100968
  0
LINE
  8
1
 62
7
  6
CONTINUOUS
 10
162.195856
 20
377.100968
 11
162.195856
 21
409.100968
  0
LINE
  8
1
 62
7
  6
CONTINUOUS
 10
162.195856
 20
409.100968
 11
156.195856
 21
409.100968
  0
LINE
  8
1
 62
7
  6
CONTINUOUS
 10
155.995856
 20
377.700968
 11
155.995856
 21
402.700968
  0
LINE
  8
1
 62
7
  6
CONTINUOUS
 10
150.395856
 20
377.700968
 11
155.995856
 21
377.700968
  0
LINE
  8
1
 62
7
  6
CONTINUOUS
 10
150.395856
 20
402.700968
 11
150.395856
 21
377.700968
  0
LINE
  8
1
 62
7
  6
CONTINUOUS
 10
155.803399
 20
408.320372
 11
155.803399
 21
403.300968
  0
LINE
  8
1
 62
7
  6
CONTINUOUS
 10
150.578927
 20
403.300968
 11
155.803399
 21
403.300968
  0
LINE
  8
1
 62
7
  6
CONTINUOUS
 10
150.578927
 20
408.320372
 11
150.578927
 21
403.300968
  0
LINE
  8
1
 62
7
  6
CONTINUOUS
 10
150.578927
 20
408.320372
 11
155.803399
 21
408.320372
  0
LINE
  8
1
 62
7
  6
CONTINUOUS
 10
152.689124
 20
403.100968
 11
152.413002
 21
403.300794
  0
LINE
  8
1
 62
7
  6
CONTINUOUS
 10
153.793610
 20
403.100968
 11
154.044630
 21
403.300968
  0
LINE
  8
1
 62
7
  6
CONTINUOUS
 10
152.689124
 20
403.100968
 11
153.793610
 21
403.100968
  0
LINE
  8
1
 62
7
  6
CONTINUOUS
 10
150.395856
 20
402.700968
 11
155.995856
 21
402.700968
  0
LINE
  8
1
 62
7
  6
CONTINUOUS
 10
151.895856
 20
382.900968
 11
151.895856
 21
380.300968
  0
LINE
  8
1
 62
7
  6
CONTINUOUS
 10
151.895856
 20
380.300968
 11
154.495856
 21
380.300968
  0
LINE
  8
1
 62
7
  6
CONTINUOUS
 10
154.495856
 20
380.300968
 11
154.495856
 21
382.900968
  0
LINE
  8
1
 62
7
  6
CONTINUOUS
 10
154.495856
 20
382.900968
 11
151.895856
 21
382.900968
  0
LINE
  8
1
 62
7
  6
CONTINUOUS
 10
151.895856
 20
387.900968
 11
151.895856
 21
385.300968
  0
LINE
  8
1
 62
7
  6
CONTINUOUS
 10
151.895856
 20
385.300968
 11
154.495856
 21
385.300968
  0
LINE
  8
1
 62
7
  6
CONTINUOUS
 10
154.495856
 20
385.300968
 11
154.495856
 21
387.900968
  0
LINE
  8
1
 62
7
  6
CONTINUOUS
 10
154.495856
 20
387.900968
 11
151.895856
 21
387.900968
  0
CIRCLE
  8
1
 62
7
  6
CONTINUOUS
 10
153.195856
 20
391.600968
 40
0.500000
  0
CIRCLE
  8
1
 62
7
  6
CONTINUOUS
 10
153.195856
 20
395.600968
 40
0.500000
  0
CIRCLE
  8
1
 62
7
  6
CONTINUOUS
 10
153.195856
 20
399.600968
 40
0.500000
  0
LINE
  8
1
 62
7
  6
CONTINUOUS
 10
150.195856
 20
409.100968
 11
150.195856
 21
377.100968
  0
LINE
  8
1
 62
7
  6
CONTINUOUS
 10
150.195856
 20
377.100968
 11
156.195856
 21
377.100968
  0
LINE
  8
1
 62
7
  6
CONTINUOUS
 10
156.195856
 20
377.100968
 11
156.195856
 21
409.100968
  0
LINE
  8
1
 62
7
  6
CONTINUOUS
 10
156.195856
 20
409.100968
 11
150.195856
 21
409.100968
  0
LINE
  8
1
 62
7
  6
CONTINUOUS
 10
150.195856
 20
408.724450
 11
156.203399
 21
408.724450
  0
LINE
  8
1
 62
7
  6
CONTINUOUS
 10
150.195856
 20
377.500968
 11
156.195856
 21
377.500968
  0
LINE
  8
1
 62
7
  6
CONTINUOUS
 10
174.178927
 20
408.724450
 11
180.195856
 21
408.724450
  0
LINE
  8
1
 62
7
  6
CONTINUOUS
 10
204.178927
 20
377.500968
 11
210.195856
 21
377.500968
  0
LINE
  8
1
 62
7
  6
CONTINUOUS
 10
209.995856
 20
377.700968
 11
209.995856
 21
402.700968
  0
LINE
  8
1
 62
7
  6
CONTINUOUS
 10
204.395856
 20
377.700968
 11
209.995856
 21
377.700968
  0
LINE
  8
1
 62
7
  6
CONTINUOUS
 10
204.395856
 20
402.700968
 11
204.395856
 21
377.700968
  0
LINE
  8
1
 62
7
  6
CONTINUOUS
 10
209.803399
 20
408.320372
 11
209.803399
 21
403.300968
  0
LINE
  8
1
 62
7
  6
CONTINUOUS
 10
204.578927
 20
403.300968
 11
209.803399
 21
403.300968
  0
LINE
  8
1
 62
7
  6
CONTINUOUS
 10
204.578927
 20
408.320372
 11
204.578927
 21
403.300968
  0
LINE
  8
1
 62
7
  6
CONTINUOUS
 10
204.578927
 20
408.320372
 11
209.803399
 21
408.320372
  0
LINE
  8
1
 62
7
  6
CONTINUOUS
 10
206.689124
 20
403.100968
 11
206.413002
 21
403.300794
  0
LINE
  8
1
 62
7
  6
CONTINUOUS
 10
207.793610
 20
403.100968
 11
208.044630
 21
403.300968
  0
LINE
  8
1
 62
7
  6
CONTINUOUS
 10
206.689124
 20
403.100968
 11
207.793610
 21
403.100968
  0
LINE
  8
1
 62
7
  6
CONTINUOUS
 10
204.395856
 20
402.700968
 11
209.995856
 21
402.700968
  0
LINE
  8
1
 62
7
  6
CONTINUOUS
 10
205.895856
 20
382.900968
 11
205.895856
 21
380.300968
  0
LINE
  8
1
 62
7
  6
CONTINUOUS
 10
205.895856
 20
380.300968
 11
208.495856
 21
380.300968
  0
LINE
  8
1
 62
7
  6
CONTINUOUS
 10
208.495856
 20
380.300968
 11
208.495856
 21
382.900968
  0
LINE
  8
1
 62
7
  6
CONTINUOUS
 10
208.495856
 20
382.900968
 11
205.895856
 21
382.900968
  0
LINE
  8
1
 62
7
  6
CONTINUOUS
 10
205.895856
 20
387.900968
 11
205.895856
 21
385.300968
  0
LINE
  8
1
 62
7
  6
CONTINUOUS
 10
205.895856
 20
385.300968
 11
208.495856
 21
385.300968
  0
LINE
  8
1
 62
7
  6
CONTINUOUS
 10
208.495856
 20
385.300968
 11
208.495856
 21
387.900968
  0
LINE
  8
1
 62
7
  6
CONTINUOUS
 10
208.495856
 20
387.900968
 11
205.895856
 21
387.900968
  0
CIRCLE
  8
1
 62
7
  6
CONTINUOUS
 10
207.195856
 20
391.600968
 40
0.500000
  0
CIRCLE
  8
1
 62
7
  6
CONTINUOUS
 10
207.195856
 20
395.600968
 40
0.500000
  0
CIRCLE
  8
1
 62
7
  6
CONTINUOUS
 10
207.195856
 20
399.600968
 40
0.500000
  0
LINE
  8
1
 62
7
  6
CONTINUOUS
 10
204.195856
 20
409.100968
 11
204.195856
 21
377.100968
  0
LINE
  8
1
 62
7
  6
CONTINUOUS
 10
204.195856
 20
377.100968
 11
210.195856
 21
377.100968
  0
LINE
  8
1
 62
7
  6
CONTINUOUS
 10
210.195856
 20
377.100968
 11
210.195856
 21
409.100968
  0
LINE
  8
1
 62
7
  6
CONTINUOUS
 10
210.195856
 20
409.100968
 11
204.195856
 21
409.100968
  0
LINE
  8
1
 62
7
  6
CONTINUOUS
 10
198.178927
 20
377.500968
 11
204.195856
 21
377.500968
  0
LINE
  8
1
 62
7
  6
CONTINUOUS
 10
203.995856
 20
377.700968
 11
203.995856
 21
402.700968
  0
LINE
  8
1
 62
7
  6
CONTINUOUS
 10
198.395856
 20
377.700968
 11
203.995856
 21
377.700968
  0
LINE
  8
1
 62
7
  6
CONTINUOUS
 10
198.395856
 20
402.700968
 11
198.395856
 21
377.700968
  0
LINE
  8
1
 62
7
  6
CONTINUOUS
 10
203.803399
 20
408.320372
 11
203.803399
 21
403.300968
  0
LINE
  8
1
 62
7
  6
CONTINUOUS
 10
198.578927
 20
403.300968
 11
203.803399
 21
403.300968
  0
LINE
  8
1
 62
7
  6
CONTINUOUS
 10
198.578927
 20
408.320372
 11
198.578927
 21
403.300968
  0
LINE
  8
1
 62
7
  6
CONTINUOUS
 10
198.578927
 20
408.320372
 11
203.803399
 21
408.320372
  0
LINE
  8
1
 62
7
  6
CONTINUOUS
 10
198.178927
 20
408.724450
 11
204.203399
 21
408.724450
  0
LINE
  8
1
 62
7
  6
CONTINUOUS
 10
200.689124
 20
403.100968
 11
200.413002
 21
403.300794
  0
LINE
  8
1
 62
7
  6
CONTINUOUS
 10
201.793610
 20
403.100968
 11
202.044630
 21
403.300968
  0
LINE
  8
1
 62
7
  6
CONTINUOUS
 10
200.689124
 20
403.100968
 11
201.793610
 21
403.100968
  0
LINE
  8
1
 62
7
  6
CONTINUOUS
 10
198.395856
 20
402.700968
 11
203.995856
 21
402.700968
  0
LINE
  8
1
 62
7
  6
CONTINUOUS
 10
199.895856
 20
382.900968
 11
199.895856
 21
380.300968
  0
LINE
  8
1
 62
7
  6
CONTINUOUS
 10
199.895856
 20
380.300968
 11
202.495856
 21
380.300968
  0
LINE
  8
1
 62
7
  6
CONTINUOUS
 10
202.495856
 20
380.300968
 11
202.495856
 21
382.900968
  0
LINE
  8
1
 62
7
  6
CONTINUOUS
 10
202.495856
 20
382.900968
 11
199.895856
 21
382.900968
  0
LINE
  8
1
 62
7
  6
CONTINUOUS
 10
199.895856
 20
387.900968
 11
199.895856
 21
385.300968
  0
LINE
  8
1
 62
7
  6
CONTINUOUS
 10
199.895856
 20
385.300968
 11
202.495856
 21
385.300968
  0
LINE
  8
1
 62
7
  6
CONTINUOUS
 10
202.495856
 20
385.300968
 11
202.495856
 21
387.900968
  0
LINE
  8
1
 62
7
  6
CONTINUOUS
 10
202.495856
 20
387.900968
 11
199.895856
 21
387.900968
  0
CIRCLE
  8
1
 62
7
  6
CONTINUOUS
 10
201.195856
 20
391.600968
 40
0.500000
  0
CIRCLE
  8
1
 62
7
  6
CONTINUOUS
 10
201.195856
 20
395.600968
 40
0.500000
  0
CIRCLE
  8
1
 62
7
  6
CONTINUOUS
 10
201.195856
 20
399.600968
 40
0.500000
  0
LINE
  8
1
 62
7
  6
CONTINUOUS
 10
198.195856
 20
409.100968
 11
198.195856
 21
377.100968
  0
LINE
  8
1
 62
7
  6
CONTINUOUS
 10
198.195856
 20
377.100968
 11
204.195856
 21
377.100968
  0
LINE
  8
1
 62
7
  6
CONTINUOUS
 10
204.195856
 20
377.100968
 11
204.195856
 21
409.100968
  0
LINE
  8
1
 62
7
  6
CONTINUOUS
 10
204.195856
 20
409.100968
 11
198.195856
 21
409.100968
  0
LINE
  8
1
 62
7
  6
CONTINUOUS
 10
192.178927
 20
377.500968
 11
198.195856
 21
377.500968
  0
LINE
  8
1
 62
7
  6
CONTINUOUS
 10
197.995856
 20
377.700968
 11
197.995856
 21
402.700968
  0
LINE
  8
1
 62
7
  6
CONTINUOUS
 10
192.395856
 20
377.700968
 11
197.995856
 21
377.700968
  0
LINE
  8
1
 62
7
  6
CONTINUOUS
 10
192.395856
 20
402.700968
 11
192.395856
 21
377.700968
  0
LINE
  8
1
 62
7
  6
CONTINUOUS
 10
197.803399
 20
408.320372
 11
197.803399
 21
403.300968
  0
LINE
  8
1
 62
7
  6
CONTINUOUS
 10
192.578927
 20
403.300968
 11
197.803399
 21
403.300968
  0
LINE
  8
1
 62
7
  6
CONTINUOUS
 10
192.578927
 20
408.320372
 11
192.578927
 21
403.300968
  0
LINE
  8
1
 62
7
  6
CONTINUOUS
 10
192.578927
 20
408.320372
 11
197.803399
 21
408.320372
  0
LINE
  8
1
 62
7
  6
CONTINUOUS
 10
192.178927
 20
408.724450
 11
198.203399
 21
408.724450
  0
LINE
  8
1
 62
7
  6
CONTINUOUS
 10
194.689124
 20
403.100968
 11
194.413002
 21
403.300794
  0
LINE
  8
1
 62
7
  6
CONTINUOUS
 10
195.793610
 20
403.100968
 11
196.044630
 21
403.300968
  0
LINE
  8
1
 62
7
  6
CONTINUOUS
 10
194.689124
 20
403.100968
 11
195.793610
 21
403.100968
  0
LINE
  8
1
 62
7
  6
CONTINUOUS
 10
192.395856
 20
402.700968
 11
197.995856
 21
402.700968
  0
LINE
  8
1
 62
7
  6
CONTINUOUS
 10
193.895856
 20
382.900968
 11
193.895856
 21
380.300968
  0
LINE
  8
1
 62
7
  6
CONTINUOUS
 10
193.895856
 20
380.300968
 11
196.495856
 21
380.300968
  0
LINE
  8
1
 62
7
  6
CONTINUOUS
 10
196.495856
 20
380.300968
 11
196.495856
 21
382.900968
  0
LINE
  8
1
 62
7
  6
CONTINUOUS
 10
196.495856
 20
382.900968
 11
193.895856
 21
382.900968
  0
LINE
  8
1
 62
7
  6
CONTINUOUS
 10
193.895856
 20
387.900968
 11
193.895856
 21
385.300968
  0
LINE
  8
1
 62
7
  6
CONTINUOUS
 10
193.895856
 20
385.300968
 11
196.495856
 21
385.300968
  0
LINE
  8
1
 62
7
  6
CONTINUOUS
 10
196.495856
 20
385.300968
 11
196.495856
 21
387.900968
  0
LINE
  8
1
 62
7
  6
CONTINUOUS
 10
196.495856
 20
387.900968
 11
193.895856
 21
387.900968
  0
CIRCLE
  8
1
 62
7
  6
CONTINUOUS
 10
195.195856
 20
391.600968
 40
0.500000
  0
CIRCLE
  8
1
 62
7
  6
CONTINUOUS
 10
195.195856
 20
395.600968
 40
0.500000
  0
CIRCLE
  8
1
 62
7
  6
CONTINUOUS
 10
195.195856
 20
399.600968
 40
0.500000
  0
LINE
  8
1
 62
7
  6
CONTINUOUS
 10
192.195856
 20
409.100968
 11
192.195856
 21
377.100968
  0
LINE
  8
1
 62
7
  6
CONTINUOUS
 10
192.195856
 20
377.100968
 11
198.195856
 21
377.100968
  0
LINE
  8
1
 62
7
  6
CONTINUOUS
 10
198.195856
 20
377.100968
 11
198.195856
 21
409.100968
  0
LINE
  8
1
 62
7
  6
CONTINUOUS
 10
198.195856
 20
409.100968
 11
192.195856
 21
409.100968
  0
LINE
  8
1
 62
7
  6
CONTINUOUS
 10
186.178927
 20
377.500968
 11
192.195856
 21
377.500968
  0
LINE
  8
1
 62
7
  6
CONTINUOUS
 10
191.995856
 20
377.700968
 11
191.995856
 21
402.700968
  0
LINE
  8
1
 62
7
  6
CONTINUOUS
 10
186.395856
 20
377.700968
 11
191.995856
 21
377.700968
  0
LINE
  8
1
 62
7
  6
CONTINUOUS
 10
186.395856
 20
402.700968
 11
186.395856
 21
377.700968
  0
LINE
  8
1
 62
7
  6
CONTINUOUS
 10
191.803399
 20
408.320372
 11
191.803399
 21
403.300968
  0
LINE
  8
1
 62
7
  6
CONTINUOUS
 10
186.578927
 20
403.300968
 11
191.803399
 21
403.300968
  0
LINE
  8
1
 62
7
  6
CONTINUOUS
 10
186.578927
 20
408.320372
 11
186.578927
 21
403.300968
  0
LINE
  8
1
 62
7
  6
CONTINUOUS
 10
186.578927
 20
408.320372
 11
191.803399
 21
408.320372
  0
LINE
  8
1
 62
7
  6
CONTINUOUS
 10
186.178927
 20
408.724450
 11
192.203399
 21
408.724450
  0
LINE
  8
1
 62
7
  6
CONTINUOUS
 10
188.689124
 20
403.100968
 11
188.413002
 21
403.300794
  0
LINE
  8
1
 62
7
  6
CONTINUOUS
 10
189.793610
 20
403.100968
 11
190.044630
 21
403.300968
  0
LINE
  8
1
 62
7
  6
CONTINUOUS
 10
188.689124
 20
403.100968
 11
189.793610
 21
403.100968
  0
LINE
  8
1
 62
7
  6
CONTINUOUS
 10
186.395856
 20
402.700968
 11
191.995856
 21
402.700968
  0
LINE
  8
1
 62
7
  6
CONTINUOUS
 10
187.895856
 20
382.900968
 11
187.895856
 21
380.300968
  0
LINE
  8
1
 62
7
  6
CONTINUOUS
 10
187.895856
 20
380.300968
 11
190.495856
 21
380.300968
  0
LINE
  8
1
 62
7
  6
CONTINUOUS
 10
190.495856
 20
380.300968
 11
190.495856
 21
382.900968
  0
LINE
  8
1
 62
7
  6
CONTINUOUS
 10
190.495856
 20
382.900968
 11
187.895856
 21
382.900968
  0
LINE
  8
1
 62
7
  6
CONTINUOUS
 10
187.895856
 20
387.900968
 11
187.895856
 21
385.300968
  0
LINE
  8
1
 62
7
  6
CONTINUOUS
 10
187.895856
 20
385.300968
 11
190.495856
 21
385.300968
  0
LINE
  8
1
 62
7
  6
CONTINUOUS
 10
190.495856
 20
385.300968
 11
190.495856
 21
387.900968
  0
LINE
  8
1
 62
7
  6
CONTINUOUS
 10
190.495856
 20
387.900968
 11
187.895856
 21
387.900968
  0
CIRCLE
  8
1
 62
7
  6
CONTINUOUS
 10
189.195856
 20
391.600968
 40
0.500000
  0
CIRCLE
  8
1
 62
7
  6
CONTINUOUS
 10
189.195856
 20
395.600968
 40
0.500000
  0
CIRCLE
  8
1
 62
7
  6
CONTINUOUS
 10
189.195856
 20
399.600968
 40
0.500000
  0
LINE
  8
1
 62
7
  6
CONTINUOUS
 10
186.195856
 20
409.100968
 11
186.195856
 21
377.100968
  0
LINE
  8
1
 62
7
  6
CONTINUOUS
 10
186.195856
 20
377.100968
 11
192.195856
 21
377.100968
  0
LINE
  8
1
 62
7
  6
CONTINUOUS
 10
192.195856
 20
377.100968
 11
192.195856
 21
409.100968
  0
LINE
  8
1
 62
7
  6
CONTINUOUS
 10
192.195856
 20
409.100968
 11
186.195856
 21
409.100968
  0
LINE
  8
1
 62
7
  6
CONTINUOUS
 10
185.995856
 20
377.700968
 11
185.995856
 21
402.700968
  0
LINE
  8
1
 62
7
  6
CONTINUOUS
 10
180.395856
 20
377.700968
 11
185.995856
 21
377.700968
  0
LINE
  8
1
 62
7
  6
CONTINUOUS
 10
180.395856
 20
402.700968
 11
180.395856
 21
377.700968
  0
LINE
  8
1
 62
7
  6
CONTINUOUS
 10
185.803399
 20
408.320372
 11
185.803399
 21
403.300968
  0
LINE
  8
1
 62
7
  6
CONTINUOUS
 10
180.578927
 20
403.300968
 11
185.803399
 21
403.300968
  0
LINE
  8
1
 62
7
  6
CONTINUOUS
 10
180.578927
 20
408.320372
 11
180.578927
 21
403.300968
  0
LINE
  8
1
 62
7
  6
CONTINUOUS
 10
180.578927
 20
408.320372
 11
185.803399
 21
408.320372
  0
LINE
  8
1
 62
7
  6
CONTINUOUS
 10
182.689124
 20
403.100968
 11
182.413002
 21
403.300794
  0
LINE
  8
1
 62
7
  6
CONTINUOUS
 10
183.793610
 20
403.100968
 11
184.044630
 21
403.300968
  0
LINE
  8
1
 62
7
  6
CONTINUOUS
 10
182.689124
 20
403.100968
 11
183.793610
 21
403.100968
  0
LINE
  8
1
 62
7
  6
CONTINUOUS
 10
180.395856
 20
402.700968
 11
185.995856
 21
402.700968
  0
LINE
  8
1
 62
7
  6
CONTINUOUS
 10
181.895856
 20
382.900968
 11
181.895856
 21
380.300968
  0
LINE
  8
1
 62
7
  6
CONTINUOUS
 10
181.895856
 20
380.300968
 11
184.495856
 21
380.300968
  0
LINE
  8
1
 62
7
  6
CONTINUOUS
 10
184.495856
 20
380.300968
 11
184.495856
 21
382.900968
  0
LINE
  8
1
 62
7
  6
CONTINUOUS
 10
184.495856
 20
382.900968
 11
181.895856
 21
382.900968
  0
LINE
  8
1
 62
7
  6
CONTINUOUS
 10
181.895856
 20
387.900968
 11
181.895856
 21
385.300968
  0
LINE
  8
1
 62
7
  6
CONTINUOUS
 10
181.895856
 20
385.300968
 11
184.495856
 21
385.300968
  0
LINE
  8
1
 62
7
  6
CONTINUOUS
 10
184.495856
 20
385.300968
 11
184.495856
 21
387.900968
  0
LINE
  8
1
 62
7
  6
CONTINUOUS
 10
184.495856
 20
387.900968
 11
181.895856
 21
387.900968
  0
CIRCLE
  8
1
 62
7
  6
CONTINUOUS
 10
183.195856
 20
391.600968
 40
0.500000
  0
CIRCLE
  8
1
 62
7
  6
CONTINUOUS
 10
183.195856
 20
395.600968
 40
0.500000
  0
CIRCLE
  8
1
 62
7
  6
CONTINUOUS
 10
183.195856
 20
399.600968
 40
0.500000
  0
LINE
  8
1
 62
7
  6
CONTINUOUS
 10
180.195856
 20
409.100968
 11
180.195856
 21
377.100968
  0
LINE
  8
1
 62
7
  6
CONTINUOUS
 10
180.195856
 20
377.100968
 11
186.195856
 21
377.100968
  0
LINE
  8
1
 62
7
  6
CONTINUOUS
 10
186.195856
 20
377.100968
 11
186.195856
 21
409.100968
  0
LINE
  8
1
 62
7
  6
CONTINUOUS
 10
186.195856
 20
409.100968
 11
180.195856
 21
409.100968
  0
LINE
  8
1
 62
7
  6
CONTINUOUS
 10
180.195856
 20
408.724450
 11
186.203399
 21
408.724450
  0
LINE
  8
1
 62
7
  6
CONTINUOUS
 10
180.195856
 20
377.500968
 11
186.195856
 21
377.500968
  0
LINE
  8
1
 62
7
  6
CONTINUOUS
 10
204.178927
 20
408.724450
 11
210.195856
 21
408.724450
  0
LINE
  8
1
 62
7
  6
CONTINUOUS
 10
174.178927
 20
339.500968
 11
180.195856
 21
339.500968
  0
LINE
  8
1
 62
7
  6
CONTINUOUS
 10
179.995856
 20
339.700968
 11
179.995856
 21
364.700968
  0
LINE
  8
1
 62
7
  6
CONTINUOUS
 10
174.395856
 20
339.700968
 11
179.995856
 21
339.700968
  0
LINE
  8
1
 62
7
  6
CONTINUOUS
 10
174.395856
 20
364.700968
 11
174.395856
 21
339.700968
  0
LINE
  8
1
 62
7
  6
CONTINUOUS
 10
179.803399
 20
370.320372
 11
179.803399
 21
365.300968
  0
LINE
  8
1
 62
7
  6
CONTINUOUS
 10
174.578927
 20
365.300968
 11
179.803399
 21
365.300968
  0
LINE
  8
1
 62
7
  6
CONTINUOUS
 10
174.578927
 20
370.320372
 11
174.578927
 21
365.300968
  0
LINE
  8
1
 62
7
  6
CONTINUOUS
 10
174.578927
 20
370.320372
 11
179.803399
 21
370.320372
  0
LINE
  8
1
 62
7
  6
CONTINUOUS
 10
176.689124
 20
365.100968
 11
176.413002
 21
365.300794
  0
LINE
  8
1
 62
7
  6
CONTINUOUS
 10
177.793610
 20
365.100968
 11
178.044630
 21
365.300968
  0
LINE
  8
1
 62
7
  6
CONTINUOUS
 10
176.689124
 20
365.100968
 11
177.793610
 21
365.100968
  0
LINE
  8
1
 62
7
  6
CONTINUOUS
 10
174.395856
 20
364.700968
 11
179.995856
 21
364.700968
  0
LINE
  8
1
 62
7
  6
CONTINUOUS
 10
175.895856
 20
344.900968
 11
175.895856
 21
342.300968
  0
LINE
  8
1
 62
7
  6
CONTINUOUS
 10
175.895856
 20
342.300968
 11
178.495856
 21
342.300968
  0
LINE
  8
1
 62
7
  6
CONTINUOUS
 10
178.495856
 20
342.300968
 11
178.495856
 21
344.900968
  0
LINE
  8
1
 62
7
  6
CONTINUOUS
 10
178.495856
 20
344.900968
 11
175.895856
 21
344.900968
  0
LINE
  8
1
 62
7
  6
CONTINUOUS
 10
175.895856
 20
349.900968
 11
175.895856
 21
347.300968
  0
LINE
  8
1
 62
7
  6
CONTINUOUS
 10
175.895856
 20
347.300968
 11
178.495856
 21
347.300968
  0
LINE
  8
1
 62
7
  6
CONTINUOUS
 10
178.495856
 20
347.300968
 11
178.495856
 21
349.900968
  0
LINE
  8
1
 62
7
  6
CONTINUOUS
 10
178.495856
 20
349.900968
 11
175.895856
 21
349.900968
  0
CIRCLE
  8
1
 62
7
  6
CONTINUOUS
 10
177.195856
 20
353.600968
 40
0.500000
  0
CIRCLE
  8
1
 62
7
  6
CONTINUOUS
 10
177.195856
 20
357.600968
 40
0.500000
  0
CIRCLE
  8
1
 62
7
  6
CONTINUOUS
 10
177.195856
 20
361.600968
 40
0.500000
  0
LINE
  8
1
 62
7
  6
CONTINUOUS
 10
174.195856
 20
371.100968
 11
174.195856
 21
339.100968
  0
LINE
  8
1
 62
7
  6
CONTINUOUS
 10
174.195856
 20
339.100968
 11
180.195856
 21
339.100968
  0
LINE
  8
1
 62
7
  6
CONTINUOUS
 10
180.195856
 20
339.100968
 11
180.195856
 21
371.100968
  0
LINE
  8
1
 62
7
  6
CONTINUOUS
 10
180.195856
 20
371.100968
 11
174.195856
 21
371.100968
  0
LINE
  8
1
 62
7
  6
CONTINUOUS
 10
168.178927
 20
339.500968
 11
174.195856
 21
339.500968
  0
LINE
  8
1
 62
7
  6
CONTINUOUS
 10
173.995856
 20
339.700968
 11
173.995856
 21
364.700968
  0
LINE
  8
1
 62
7
  6
CONTINUOUS
 10
168.395856
 20
339.700968
 11
173.995856
 21
339.700968
  0
LINE
  8
1
 62
7
  6
CONTINUOUS
 10
168.395856
 20
364.700968
 11
168.395856
 21
339.700968
  0
LINE
  8
1
 62
7
  6
CONTINUOUS
 10
173.803399
 20
370.320372
 11
173.803399
 21
365.300968
  0
LINE
  8
1
 62
7
  6
CONTINUOUS
 10
168.578927
 20
365.300968
 11
173.803399
 21
365.300968
  0
LINE
  8
1
 62
7
  6
CONTINUOUS
 10
168.578927
 20
370.320372
 11
168.578927
 21
365.300968
  0
LINE
  8
1
 62
7
  6
CONTINUOUS
 10
168.578927
 20
370.320372
 11
173.803399
 21
370.320372
  0
LINE
  8
1
 62
7
  6
CONTINUOUS
 10
168.178927
 20
370.724450
 11
174.203399
 21
370.724450
  0
LINE
  8
1
 62
7
  6
CONTINUOUS
 10
170.689124
 20
365.100968
 11
170.413002
 21
365.300794
  0
LINE
  8
1
 62
7
  6
CONTINUOUS
 10
171.793610
 20
365.100968
 11
172.044630
 21
365.300968
  0
LINE
  8
1
 62
7
  6
CONTINUOUS
 10
170.689124
 20
365.100968
 11
171.793610
 21
365.100968
  0
LINE
  8
1
 62
7
  6
CONTINUOUS
 10
168.395856
 20
364.700968
 11
173.995856
 21
364.700968
  0
LINE
  8
1
 62
7
  6
CONTINUOUS
 10
169.895856
 20
344.900968
 11
169.895856
 21
342.300968
  0
LINE
  8
1
 62
7
  6
CONTINUOUS
 10
169.895856
 20
342.300968
 11
172.495856
 21
342.300968
  0
LINE
  8
1
 62
7
  6
CONTINUOUS
 10
172.495856
 20
342.300968
 11
172.495856
 21
344.900968
  0
LINE
  8
1
 62
7
  6
CONTINUOUS
 10
172.495856
 20
344.900968
 11
169.895856
 21
344.900968
  0
LINE
  8
1
 62
7
  6
CONTINUOUS
 10
169.895856
 20
349.900968
 11
169.895856
 21
347.300968
  0
LINE
  8
1
 62
7
  6
CONTINUOUS
 10
169.895856
 20
347.300968
 11
172.495856
 21
347.300968
  0
LINE
  8
1
 62
7
  6
CONTINUOUS
 10
172.495856
 20
347.300968
 11
172.495856
 21
349.900968
  0
LINE
  8
1
 62
7
  6
CONTINUOUS
 10
172.495856
 20
349.900968
 11
169.895856
 21
349.900968
  0
CIRCLE
  8
1
 62
7
  6
CONTINUOUS
 10
171.195856
 20
353.600968
 40
0.500000
  0
CIRCLE
  8
1
 62
7
  6
CONTINUOUS
 10
171.195856
 20
357.600968
 40
0.500000
  0
CIRCLE
  8
1
 62
7
  6
CONTINUOUS
 10
171.195856
 20
361.600968
 40
0.500000
  0
LINE
  8
1
 62
7
  6
CONTINUOUS
 10
168.195856
 20
371.100968
 11
168.195856
 21
339.100968
  0
LINE
  8
1
 62
7
  6
CONTINUOUS
 10
168.195856
 20
339.100968
 11
174.195856
 21
339.100968
  0
LINE
  8
1
 62
7
  6
CONTINUOUS
 10
174.195856
 20
339.100968
 11
174.195856
 21
371.100968
  0
LINE
  8
1
 62
7
  6
CONTINUOUS
 10
174.195856
 20
371.100968
 11
168.195856
 21
371.100968
  0
LINE
  8
1
 62
7
  6
CONTINUOUS
 10
162.178927
 20
339.500968
 11
168.195856
 21
339.500968
  0
LINE
  8
1
 62
7
  6
CONTINUOUS
 10
167.995856
 20
339.700968
 11
167.995856
 21
364.700968
  0
LINE
  8
1
 62
7
  6
CONTINUOUS
 10
162.395856
 20
339.700968
 11
167.995856
 21
339.700968
  0
LINE
  8
1
 62
7
  6
CONTINUOUS
 10
162.395856
 20
364.700968
 11
162.395856
 21
339.700968
  0
LINE
  8
1
 62
7
  6
CONTINUOUS
 10
167.803399
 20
370.320372
 11
167.803399
 21
365.300968
  0
LINE
  8
1
 62
7
  6
CONTINUOUS
 10
162.578927
 20
365.300968
 11
167.803399
 21
365.300968
  0
LINE
  8
1
 62
7
  6
CONTINUOUS
 10
162.578927
 20
370.320372
 11
162.578927
 21
365.300968
  0
LINE
  8
1
 62
7
  6
CONTINUOUS
 10
162.578927
 20
370.320372
 11
167.803399
 21
370.320372
  0
LINE
  8
1
 62
7
  6
CONTINUOUS
 10
162.178927
 20
370.724450
 11
168.203399
 21
370.724450
  0
LINE
  8
1
 62
7
  6
CONTINUOUS
 10
164.689124
 20
365.100968
 11
164.413002
 21
365.300794
  0
LINE
  8
1
 62
7
  6
CONTINUOUS
 10
165.793610
 20
365.100968
 11
166.044630
 21
365.300968
  0
LINE
  8
1
 62
7
  6
CONTINUOUS
 10
164.689124
 20
365.100968
 11
165.793610
 21
365.100968
  0
LINE
  8
1
 62
7
  6
CONTINUOUS
 10
162.395856
 20
364.700968
 11
167.995856
 21
364.700968
  0
LINE
  8
1
 62
7
  6
CONTINUOUS
 10
163.895856
 20
344.900968
 11
163.895856
 21
342.300968
  0
LINE
  8
1
 62
7
  6
CONTINUOUS
 10
163.895856
 20
342.300968
 11
166.495856
 21
342.300968
  0
LINE
  8
1
 62
7
  6
CONTINUOUS
 10
166.495856
 20
342.300968
 11
166.495856
 21
344.900968
  0
LINE
  8
1
 62
7
  6
CONTINUOUS
 10
166.495856
 20
344.900968
 11
163.895856
 21
344.900968
  0
LINE
  8
1
 62
7
  6
CONTINUOUS
 10
163.895856
 20
349.900968
 11
163.895856
 21
347.300968
  0
LINE
  8
1
 62
7
  6
CONTINUOUS
 10
163.895856
 20
347.300968
 11
166.495856
 21
347.300968
  0
LINE
  8
1
 62
7
  6
CONTINUOUS
 10
166.495856
 20
347.300968
 11
166.495856
 21
349.900968
  0
LINE
  8
1
 62
7
  6
CONTINUOUS
 10
166.495856
 20
349.900968
 11
163.895856
 21
349.900968
  0
CIRCLE
  8
1
 62
7
  6
CONTINUOUS
 10
165.195856
 20
353.600968
 40
0.500000
  0
CIRCLE
  8
1
 62
7
  6
CONTINUOUS
 10
165.195856
 20
357.600968
 40
0.500000
  0
CIRCLE
  8
1
 62
7
  6
CONTINUOUS
 10
165.195856
 20
361.600968
 40
0.500000
  0
LINE
  8
1
 62
7
  6
CONTINUOUS
 10
162.195856
 20
371.100968
 11
162.195856
 21
339.100968
  0
LINE
  8
1
 62
7
  6
CONTINUOUS
 10
162.195856
 20
339.100968
 11
168.195856
 21
339.100968
  0
LINE
  8
1
 62
7
  6
CONTINUOUS
 10
168.195856
 20
339.100968
 11
168.195856
 21
371.100968
  0
LINE
  8
1
 62
7
  6
CONTINUOUS
 10
168.195856
 20
371.100968
 11
162.195856
 21
371.100968
  0
LINE
  8
1
 62
7
  6
CONTINUOUS
 10
156.178927
 20
339.500968
 11
162.195856
 21
339.500968
  0
LINE
  8
1
 62
7
  6
CONTINUOUS
 10
161.995856
 20
339.700968
 11
161.995856
 21
364.700968
  0
LINE
  8
1
 62
7
  6
CONTINUOUS
 10
156.395856
 20
339.700968
 11
161.995856
 21
339.700968
  0
LINE
  8
1
 62
7
  6
CONTINUOUS
 10
156.395856
 20
364.700968
 11
156.395856
 21
339.700968
  0
LINE
  8
1
 62
7
  6
CONTINUOUS
 10
161.803399
 20
370.320372
 11
161.803399
 21
365.300968
  0
LINE
  8
1
 62
7
  6
CONTINUOUS
 10
156.578927
 20
365.300968
 11
161.803399
 21
365.300968
  0
LINE
  8
1
 62
7
  6
CONTINUOUS
 10
156.578927
 20
370.320372
 11
156.578927
 21
365.300968
  0
LINE
  8
1
 62
7
  6
CONTINUOUS
 10
156.578927
 20
370.320372
 11
161.803399
 21
370.320372
  0
LINE
  8
1
 62
7
  6
CONTINUOUS
 10
156.178927
 20
370.724450
 11
162.203399
 21
370.724450
  0
LINE
  8
1
 62
7
  6
CONTINUOUS
 10
158.689124
 20
365.100968
 11
158.413002
 21
365.300794
  0
LINE
  8
1
 62
7
  6
CONTINUOUS
 10
159.793610
 20
365.100968
 11
160.044630
 21
365.300968
  0
LINE
  8
1
 62
7
  6
CONTINUOUS
 10
158.689124
 20
365.100968
 11
159.793610
 21
365.100968
  0
LINE
  8
1
 62
7
  6
CONTINUOUS
 10
156.395856
 20
364.700968
 11
161.995856
 21
364.700968
  0
LINE
  8
1
 62
7
  6
CONTINUOUS
 10
157.895856
 20
344.900968
 11
157.895856
 21
342.300968
  0
LINE
  8
1
 62
7
  6
CONTINUOUS
 10
157.895856
 20
342.300968
 11
160.495856
 21
342.300968
  0
LINE
  8
1
 62
7
  6
CONTINUOUS
 10
160.495856
 20
342.300968
 11
160.495856
 21
344.900968
  0
LINE
  8
1
 62
7
  6
CONTINUOUS
 10
160.495856
 20
344.900968
 11
157.895856
 21
344.900968
  0
LINE
  8
1
 62
7
  6
CONTINUOUS
 10
157.895856
 20
349.900968
 11
157.895856
 21
347.300968
  0
LINE
  8
1
 62
7
  6
CONTINUOUS
 10
157.895856
 20
347.300968
 11
160.495856
 21
347.300968
  0
LINE
  8
1
 62
7
  6
CONTINUOUS
 10
160.495856
 20
347.300968
 11
160.495856
 21
349.900968
  0
LINE
  8
1
 62
7
  6
CONTINUOUS
 10
160.495856
 20
349.900968
 11
157.895856
 21
349.900968
  0
CIRCLE
  8
1
 62
7
  6
CONTINUOUS
 10
159.195856
 20
353.600968
 40
0.500000
  0
CIRCLE
  8
1
 62
7
  6
CONTINUOUS
 10
159.195856
 20
357.600968
 40
0.500000
  0
CIRCLE
  8
1
 62
7
  6
CONTINUOUS
 10
159.195856
 20
361.600968
 40
0.500000
  0
LINE
  8
1
 62
7
  6
CONTINUOUS
 10
156.195856
 20
371.100968
 11
156.195856
 21
339.100968
  0
LINE
  8
1
 62
7
  6
CONTINUOUS
 10
156.195856
 20
339.100968
 11
162.195856
 21
339.100968
  0
LINE
  8
1
 62
7
  6
CONTINUOUS
 10
162.195856
 20
339.100968
 11
162.195856
 21
371.100968
  0
LINE
  8
1
 62
7
  6
CONTINUOUS
 10
162.195856
 20
371.100968
 11
156.195856
 21
371.100968
  0
LINE
  8
1
 62
7
  6
CONTINUOUS
 10
155.995856
 20
339.700968
 11
155.995856
 21
364.700968
  0
LINE
  8
1
 62
7
  6
CONTINUOUS
 10
150.395856
 20
339.700968
 11
155.995856
 21
339.700968
  0
LINE
  8
1
 62
7
  6
CONTINUOUS
 10
150.395856
 20
364.700968
 11
150.395856
 21
339.700968
  0
LINE
  8
1
 62
7
  6
CONTINUOUS
 10
155.803399
 20
370.320372
 11
155.803399
 21
365.300968
  0
LINE
  8
1
 62
7
  6
CONTINUOUS
 10
150.578927
 20
365.300968
 11
155.803399
 21
365.300968
  0
LINE
  8
1
 62
7
  6
CONTINUOUS
 10
150.578927
 20
370.320372
 11
150.578927
 21
365.300968
  0
LINE
  8
1
 62
7
  6
CONTINUOUS
 10
150.578927
 20
370.320372
 11
155.803399
 21
370.320372
  0
LINE
  8
1
 62
7
  6
CONTINUOUS
 10
152.689124
 20
365.100968
 11
152.413002
 21
365.300794
  0
LINE
  8
1
 62
7
  6
CONTINUOUS
 10
153.793610
 20
365.100968
 11
154.044630
 21
365.300968
  0
LINE
  8
1
 62
7
  6
CONTINUOUS
 10
152.689124
 20
365.100968
 11
153.793610
 21
365.100968
  0
LINE
  8
1
 62
7
  6
CONTINUOUS
 10
150.395856
 20
364.700968
 11
155.995856
 21
364.700968
  0
LINE
  8
1
 62
7
  6
CONTINUOUS
 10
151.895856
 20
344.900968
 11
151.895856
 21
342.300968
  0
LINE
  8
1
 62
7
  6
CONTINUOUS
 10
151.895856
 20
342.300968
 11
154.495856
 21
342.300968
  0
LINE
  8
1
 62
7
  6
CONTINUOUS
 10
154.495856
 20
342.300968
 11
154.495856
 21
344.900968
  0
LINE
  8
1
 62
7
  6
CONTINUOUS
 10
154.495856
 20
344.900968
 11
151.895856
 21
344.900968
  0
LINE
  8
1
 62
7
  6
CONTINUOUS
 10
151.895856
 20
349.900968
 11
151.895856
 21
347.300968
  0
LINE
  8
1
 62
7
  6
CONTINUOUS
 10
151.895856
 20
347.300968
 11
154.495856
 21
347.300968
  0
LINE
  8
1
 62
7
  6
CONTINUOUS
 10
154.495856
 20
347.300968
 11
154.495856
 21
349.900968
  0
LINE
  8
1
 62
7
  6
CONTINUOUS
 10
154.495856
 20
349.900968
 11
151.895856
 21
349.900968
  0
CIRCLE
  8
1
 62
7
  6
CONTINUOUS
 10
153.195856
 20
353.600968
 40
0.500000
  0
CIRCLE
  8
1
 62
7
  6
CONTINUOUS
 10
153.195856
 20
357.600968
 40
0.500000
  0
CIRCLE
  8
1
 62
7
  6
CONTINUOUS
 10
153.195856
 20
361.600968
 40
0.500000
  0
LINE
  8
1
 62
7
  6
CONTINUOUS
 10
150.195856
 20
371.100968
 11
150.195856
 21
339.100968
  0
LINE
  8
1
 62
7
  6
CONTINUOUS
 10
150.195856
 20
339.100968
 11
156.195856
 21
339.100968
  0
LINE
  8
1
 62
7
  6
CONTINUOUS
 10
156.195856
 20
339.100968
 11
156.195856
 21
371.100968
  0
LINE
  8
1
 62
7
  6
CONTINUOUS
 10
156.195856
 20
371.100968
 11
150.195856
 21
371.100968
  0
LINE
  8
1
 62
7
  6
CONTINUOUS
 10
150.195856
 20
370.724450
 11
156.203399
 21
370.724450
  0
LINE
  8
1
 62
7
  6
CONTINUOUS
 10
150.195856
 20
339.500968
 11
156.195856
 21
339.500968
  0
LINE
  8
1
 62
7
  6
CONTINUOUS
 10
174.178927
 20
370.724450
 11
180.195856
 21
370.724450
  0
LINE
  8
1
 62
7
  6
CONTINUOUS
 10
204.178927
 20
339.500968
 11
210.195856
 21
339.500968
  0
LINE
  8
1
 62
7
  6
CONTINUOUS
 10
209.995856
 20
339.700968
 11
209.995856
 21
364.700968
  0
LINE
  8
1
 62
7
  6
CONTINUOUS
 10
204.395856
 20
339.700968
 11
209.995856
 21
339.700968
  0
LINE
  8
1
 62
7
  6
CONTINUOUS
 10
204.395856
 20
364.700968
 11
204.395856
 21
339.700968
  0
LINE
  8
1
 62
7
  6
CONTINUOUS
 10
209.803399
 20
370.320372
 11
209.803399
 21
365.300968
  0
LINE
  8
1
 62
7
  6
CONTINUOUS
 10
204.578927
 20
365.300968
 11
209.803399
 21
365.300968
  0
LINE
  8
1
 62
7
  6
CONTINUOUS
 10
204.578927
 20
370.320372
 11
204.578927
 21
365.300968
  0
LINE
  8
1
 62
7
  6
CONTINUOUS
 10
204.578927
 20
370.320372
 11
209.803399
 21
370.320372
  0
LINE
  8
1
 62
7
  6
CONTINUOUS
 10
206.689124
 20
365.100968
 11
206.413002
 21
365.300794
  0
LINE
  8
1
 62
7
  6
CONTINUOUS
 10
207.793610
 20
365.100968
 11
208.044630
 21
365.300968
  0
LINE
  8
1
 62
7
  6
CONTINUOUS
 10
206.689124
 20
365.100968
 11
207.793610
 21
365.100968
  0
LINE
  8
1
 62
7
  6
CONTINUOUS
 10
204.395856
 20
364.700968
 11
209.995856
 21
364.700968
  0
LINE
  8
1
 62
7
  6
CONTINUOUS
 10
205.895856
 20
344.900968
 11
205.895856
 21
342.300968
  0
LINE
  8
1
 62
7
  6
CONTINUOUS
 10
205.895856
 20
342.300968
 11
208.495856
 21
342.300968
  0
LINE
  8
1
 62
7
  6
CONTINUOUS
 10
208.495856
 20
342.300968
 11
208.495856
 21
344.900968
  0
LINE
  8
1
 62
7
  6
CONTINUOUS
 10
208.495856
 20
344.900968
 11
205.895856
 21
344.900968
  0
LINE
  8
1
 62
7
  6
CONTINUOUS
 10
205.895856
 20
349.900968
 11
205.895856
 21
347.300968
  0
LINE
  8
1
 62
7
  6
CONTINUOUS
 10
205.895856
 20
347.300968
 11
208.495856
 21
347.300968
  0
LINE
  8
1
 62
7
  6
CONTINUOUS
 10
208.495856
 20
347.300968
 11
208.495856
 21
349.900968
  0
LINE
  8
1
 62
7
  6
CONTINUOUS
 10
208.495856
 20
349.900968
 11
205.895856
 21
349.900968
  0
CIRCLE
  8
1
 62
7
  6
CONTINUOUS
 10
207.195856
 20
353.600968
 40
0.500000
  0
CIRCLE
  8
1
 62
7
  6
CONTINUOUS
 10
207.195856
 20
357.600968
 40
0.500000
  0
CIRCLE
  8
1
 62
7
  6
CONTINUOUS
 10
207.195856
 20
361.600968
 40
0.500000
  0
LINE
  8
1
 62
7
  6
CONTINUOUS
 10
204.195856
 20
371.100968
 11
204.195856
 21
339.100968
  0
LINE
  8
1
 62
7
  6
CONTINUOUS
 10
204.195856
 20
339.100968
 11
210.195856
 21
339.100968
  0
LINE
  8
1
 62
7
  6
CONTINUOUS
 10
210.195856
 20
339.100968
 11
210.195856
 21
371.100968
  0
LINE
  8
1
 62
7
  6
CONTINUOUS
 10
210.195856
 20
371.100968
 11
204.195856
 21
371.100968
  0
LINE
  8
1
 62
7
  6
CONTINUOUS
 10
198.178927
 20
339.500968
 11
204.195856
 21
339.500968
  0
LINE
  8
1
 62
7
  6
CONTINUOUS
 10
203.995856
 20
339.700968
 11
203.995856
 21
364.700968
  0
LINE
  8
1
 62
7
  6
CONTINUOUS
 10
198.395856
 20
339.700968
 11
203.995856
 21
339.700968
  0
LINE
  8
1
 62
7
  6
CONTINUOUS
 10
198.395856
 20
364.700968
 11
198.395856
 21
339.700968
  0
LINE
  8
1
 62
7
  6
CONTINUOUS
 10
203.803399
 20
370.320372
 11
203.803399
 21
365.300968
  0
LINE
  8
1
 62
7
  6
CONTINUOUS
 10
198.578927
 20
365.300968
 11
203.803399
 21
365.300968
  0
LINE
  8
1
 62
7
  6
CONTINUOUS
 10
198.578927
 20
370.320372
 11
198.578927
 21
365.300968
  0
LINE
  8
1
 62
7
  6
CONTINUOUS
 10
198.578927
 20
370.320372
 11
203.803399
 21
370.320372
  0
LINE
  8
1
 62
7
  6
CONTINUOUS
 10
198.178927
 20
370.724450
 11
204.203399
 21
370.724450
  0
LINE
  8
1
 62
7
  6
CONTINUOUS
 10
200.689124
 20
365.100968
 11
200.413002
 21
365.300794
  0
LINE
  8
1
 62
7
  6
CONTINUOUS
 10
201.793610
 20
365.100968
 11
202.044630
 21
365.300968
  0
LINE
  8
1
 62
7
  6
CONTINUOUS
 10
200.689124
 20
365.100968
 11
201.793610
 21
365.100968
  0
LINE
  8
1
 62
7
  6
CONTINUOUS
 10
198.395856
 20
364.700968
 11
203.995856
 21
364.700968
  0
LINE
  8
1
 62
7
  6
CONTINUOUS
 10
199.895856
 20
344.900968
 11
199.895856
 21
342.300968
  0
LINE
  8
1
 62
7
  6
CONTINUOUS
 10
199.895856
 20
342.300968
 11
202.495856
 21
342.300968
  0
LINE
  8
1
 62
7
  6
CONTINUOUS
 10
202.495856
 20
342.300968
 11
202.495856
 21
344.900968
  0
LINE
  8
1
 62
7
  6
CONTINUOUS
 10
202.495856
 20
344.900968
 11
199.895856
 21
344.900968
  0
LINE
  8
1
 62
7
  6
CONTINUOUS
 10
199.895856
 20
349.900968
 11
199.895856
 21
347.300968
  0
LINE
  8
1
 62
7
  6
CONTINUOUS
 10
199.895856
 20
347.300968
 11
202.495856
 21
347.300968
  0
LINE
  8
1
 62
7
  6
CONTINUOUS
 10
202.495856
 20
347.300968
 11
202.495856
 21
349.900968
  0
LINE
  8
1
 62
7
  6
CONTINUOUS
 10
202.495856
 20
349.900968
 11
199.895856
 21
349.900968
  0
CIRCLE
  8
1
 62
7
  6
CONTINUOUS
 10
201.195856
 20
353.600968
 40
0.500000
  0
CIRCLE
  8
1
 62
7
  6
CONTINUOUS
 10
201.195856
 20
357.600968
 40
0.500000
  0
CIRCLE
  8
1
 62
7
  6
CONTINUOUS
 10
201.195856
 20
361.600968
 40
0.500000
  0
LINE
  8
1
 62
7
  6
CONTINUOUS
 10
198.195856
 20
371.100968
 11
198.195856
 21
339.100968
  0
LINE
  8
1
 62
7
  6
CONTINUOUS
 10
198.195856
 20
339.100968
 11
204.195856
 21
339.100968
  0
LINE
  8
1
 62
7
  6
CONTINUOUS
 10
204.195856
 20
339.100968
 11
204.195856
 21
371.100968
  0
LINE
  8
1
 62
7
  6
CONTINUOUS
 10
204.195856
 20
371.100968
 11
198.195856
 21
371.100968
  0
LINE
  8
1
 62
7
  6
CONTINUOUS
 10
192.178927
 20
339.500968
 11
198.195856
 21
339.500968
  0
LINE
  8
1
 62
7
  6
CONTINUOUS
 10
197.995856
 20
339.700968
 11
197.995856
 21
364.700968
  0
LINE
  8
1
 62
7
  6
CONTINUOUS
 10
192.395856
 20
339.700968
 11
197.995856
 21
339.700968
  0
LINE
  8
1
 62
7
  6
CONTINUOUS
 10
192.395856
 20
364.700968
 11
192.395856
 21
339.700968
  0
LINE
  8
1
 62
7
  6
CONTINUOUS
 10
197.803399
 20
370.320372
 11
197.803399
 21
365.300968
  0
LINE
  8
1
 62
7
  6
CONTINUOUS
 10
192.578927
 20
365.300968
 11
197.803399
 21
365.300968
  0
LINE
  8
1
 62
7
  6
CONTINUOUS
 10
192.578927
 20
370.320372
 11
192.578927
 21
365.300968
  0
LINE
  8
1
 62
7
  6
CONTINUOUS
 10
192.578927
 20
370.320372
 11
197.803399
 21
370.320372
  0
LINE
  8
1
 62
7
  6
CONTINUOUS
 10
192.178927
 20
370.724450
 11
198.203399
 21
370.724450
  0
LINE
  8
1
 62
7
  6
CONTINUOUS
 10
194.689124
 20
365.100968
 11
194.413002
 21
365.300794
  0
LINE
  8
1
 62
7
  6
CONTINUOUS
 10
195.793610
 20
365.100968
 11
196.044630
 21
365.300968
  0
LINE
  8
1
 62
7
  6
CONTINUOUS
 10
194.689124
 20
365.100968
 11
195.793610
 21
365.100968
  0
LINE
  8
1
 62
7
  6
CONTINUOUS
 10
192.395856
 20
364.700968
 11
197.995856
 21
364.700968
  0
LINE
  8
1
 62
7
  6
CONTINUOUS
 10
193.895856
 20
344.900968
 11
193.895856
 21
342.300968
  0
LINE
  8
1
 62
7
  6
CONTINUOUS
 10
193.895856
 20
342.300968
 11
196.495856
 21
342.300968
  0
LINE
  8
1
 62
7
  6
CONTINUOUS
 10
196.495856
 20
342.300968
 11
196.495856
 21
344.900968
  0
LINE
  8
1
 62
7
  6
CONTINUOUS
 10
196.495856
 20
344.900968
 11
193.895856
 21
344.900968
  0
LINE
  8
1
 62
7
  6
CONTINUOUS
 10
193.895856
 20
349.900968
 11
193.895856
 21
347.300968
  0
LINE
  8
1
 62
7
  6
CONTINUOUS
 10
193.895856
 20
347.300968
 11
196.495856
 21
347.300968
  0
LINE
  8
1
 62
7
  6
CONTINUOUS
 10
196.495856
 20
347.300968
 11
196.495856
 21
349.900968
  0
LINE
  8
1
 62
7
  6
CONTINUOUS
 10
196.495856
 20
349.900968
 11
193.895856
 21
349.900968
  0
CIRCLE
  8
1
 62
7
  6
CONTINUOUS
 10
195.195856
 20
353.600968
 40
0.500000
  0
CIRCLE
  8
1
 62
7
  6
CONTINUOUS
 10
195.195856
 20
357.600968
 40
0.500000
  0
CIRCLE
  8
1
 62
7
  6
CONTINUOUS
 10
195.195856
 20
361.600968
 40
0.500000
  0
LINE
  8
1
 62
7
  6
CONTINUOUS
 10
192.195856
 20
371.100968
 11
192.195856
 21
339.100968
  0
LINE
  8
1
 62
7
  6
CONTINUOUS
 10
192.195856
 20
339.100968
 11
198.195856
 21
339.100968
  0
LINE
  8
1
 62
7
  6
CONTINUOUS
 10
198.195856
 20
339.100968
 11
198.195856
 21
371.100968
  0
LINE
  8
1
 62
7
  6
CONTINUOUS
 10
198.195856
 20
371.100968
 11
192.195856
 21
371.100968
  0
LINE
  8
1
 62
7
  6
CONTINUOUS
 10
186.178927
 20
339.500968
 11
192.195856
 21
339.500968
  0
LINE
  8
1
 62
7
  6
CONTINUOUS
 10
191.995856
 20
339.700968
 11
191.995856
 21
364.700968
  0
LINE
  8
1
 62
7
  6
CONTINUOUS
 10
186.395856
 20
339.700968
 11
191.995856
 21
339.700968
  0
LINE
  8
1
 62
7
  6
CONTINUOUS
 10
186.395856
 20
364.700968
 11
186.395856
 21
339.700968
  0
LINE
  8
1
 62
7
  6
CONTINUOUS
 10
191.803399
 20
370.320372
 11
191.803399
 21
365.300968
  0
LINE
  8
1
 62
7
  6
CONTINUOUS
 10
186.578927
 20
365.300968
 11
191.803399
 21
365.300968
  0
LINE
  8
1
 62
7
  6
CONTINUOUS
 10
186.578927
 20
370.320372
 11
186.578927
 21
365.300968
  0
LINE
  8
1
 62
7
  6
CONTINUOUS
 10
186.578927
 20
370.320372
 11
191.803399
 21
370.320372
  0
LINE
  8
1
 62
7
  6
CONTINUOUS
 10
186.178927
 20
370.724450
 11
192.203399
 21
370.724450
  0
LINE
  8
1
 62
7
  6
CONTINUOUS
 10
188.689124
 20
365.100968
 11
188.413002
 21
365.300794
  0
LINE
  8
1
 62
7
  6
CONTINUOUS
 10
189.793610
 20
365.100968
 11
190.044630
 21
365.300968
  0
LINE
  8
1
 62
7
  6
CONTINUOUS
 10
188.689124
 20
365.100968
 11
189.793610
 21
365.100968
  0
LINE
  8
1
 62
7
  6
CONTINUOUS
 10
186.395856
 20
364.700968
 11
191.995856
 21
364.700968
  0
LINE
  8
1
 62
7
  6
CONTINUOUS
 10
187.895856
 20
344.900968
 11
187.895856
 21
342.300968
  0
LINE
  8
1
 62
7
  6
CONTINUOUS
 10
187.895856
 20
342.300968
 11
190.495856
 21
342.300968
  0
LINE
  8
1
 62
7
  6
CONTINUOUS
 10
190.495856
 20
342.300968
 11
190.495856
 21
344.900968
  0
LINE
  8
1
 62
7
  6
CONTINUOUS
 10
190.495856
 20
344.900968
 11
187.895856
 21
344.900968
  0
LINE
  8
1
 62
7
  6
CONTINUOUS
 10
187.895856
 20
349.900968
 11
187.895856
 21
347.300968
  0
LINE
  8
1
 62
7
  6
CONTINUOUS
 10
187.895856
 20
347.300968
 11
190.495856
 21
347.300968
  0
LINE
  8
1
 62
7
  6
CONTINUOUS
 10
190.495856
 20
347.300968
 11
190.495856
 21
349.900968
  0
LINE
  8
1
 62
7
  6
CONTINUOUS
 10
190.495856
 20
349.900968
 11
187.895856
 21
349.900968
  0
CIRCLE
  8
1
 62
7
  6
CONTINUOUS
 10
189.195856
 20
353.600968
 40
0.500000
  0
CIRCLE
  8
1
 62
7
  6
CONTINUOUS
 10
189.195856
 20
357.600968
 40
0.500000
  0
CIRCLE
  8
1
 62
7
  6
CONTINUOUS
 10
189.195856
 20
361.600968
 40
0.500000
  0
LINE
  8
1
 62
7
  6
CONTINUOUS
 10
186.195856
 20
371.100968
 11
186.195856
 21
339.100968
  0
LINE
  8
1
 62
7
  6
CONTINUOUS
 10
186.195856
 20
339.100968
 11
192.195856
 21
339.100968
  0
LINE
  8
1
 62
7
  6
CONTINUOUS
 10
192.195856
 20
339.100968
 11
192.195856
 21
371.100968
  0
LINE
  8
1
 62
7
  6
CONTINUOUS
 10
192.195856
 20
371.100968
 11
186.195856
 21
371.100968
  0
LINE
  8
1
 62
7
  6
CONTINUOUS
 10
185.995856
 20
339.700968
 11
185.995856
 21
364.700968
  0
LINE
  8
1
 62
7
  6
CONTINUOUS
 10
180.395856
 20
339.700968
 11
185.995856
 21
339.700968
  0
LINE
  8
1
 62
7
  6
CONTINUOUS
 10
180.395856
 20
364.700968
 11
180.395856
 21
339.700968
  0
LINE
  8
1
 62
7
  6
CONTINUOUS
 10
185.803399
 20
370.320372
 11
185.803399
 21
365.300968
  0
LINE
  8
1
 62
7
  6
CONTINUOUS
 10
180.578927
 20
365.300968
 11
185.803399
 21
365.300968
  0
LINE
  8
1
 62
7
  6
CONTINUOUS
 10
180.578927
 20
370.320372
 11
180.578927
 21
365.300968
  0
LINE
  8
1
 62
7
  6
CONTINUOUS
 10
180.578927
 20
370.320372
 11
185.803399
 21
370.320372
  0
LINE
  8
1
 62
7
  6
CONTINUOUS
 10
182.689124
 20
365.100968
 11
182.413002
 21
365.300794
  0
LINE
  8
1
 62
7
  6
CONTINUOUS
 10
183.793610
 20
365.100968
 11
184.044630
 21
365.300968
  0
LINE
  8
1
 62
7
  6
CONTINUOUS
 10
182.689124
 20
365.100968
 11
183.793610
 21
365.100968
  0
LINE
  8
1
 62
7
  6
CONTINUOUS
 10
180.395856
 20
364.700968
 11
185.995856
 21
364.700968
  0
LINE
  8
1
 62
7
  6
CONTINUOUS
 10
181.895856
 20
344.900968
 11
181.895856
 21
342.300968
  0
LINE
  8
1
 62
7
  6
CONTINUOUS
 10
181.895856
 20
342.300968
 11
184.495856
 21
342.300968
  0
LINE
  8
1
 62
7
  6
CONTINUOUS
 10
184.495856
 20
342.300968
 11
184.495856
 21
344.900968
  0
LINE
  8
1
 62
7
  6
CONTINUOUS
 10
184.495856
 20
344.900968
 11
181.895856
 21
344.900968
  0
LINE
  8
1
 62
7
  6
CONTINUOUS
 10
181.895856
 20
349.900968
 11
181.895856
 21
347.300968
  0
LINE
  8
1
 62
7
  6
CONTINUOUS
 10
181.895856
 20
347.300968
 11
184.495856
 21
347.300968
  0
LINE
  8
1
 62
7
  6
CONTINUOUS
 10
184.495856
 20
347.300968
 11
184.495856
 21
349.900968
  0
LINE
  8
1
 62
7
  6
CONTINUOUS
 10
184.495856
 20
349.900968
 11
181.895856
 21
349.900968
  0
CIRCLE
  8
1
 62
7
  6
CONTINUOUS
 10
183.195856
 20
353.600968
 40
0.500000
  0
CIRCLE
  8
1
 62
7
  6
CONTINUOUS
 10
183.195856
 20
357.600968
 40
0.500000
  0
CIRCLE
  8
1
 62
7
  6
CONTINUOUS
 10
183.195856
 20
361.600968
 40
0.500000
  0
LINE
  8
1
 62
7
  6
CONTINUOUS
 10
180.195856
 20
371.100968
 11
180.195856
 21
339.100968
  0
LINE
  8
1
 62
7
  6
CONTINUOUS
 10
180.195856
 20
339.100968
 11
186.195856
 21
339.100968
  0
LINE
  8
1
 62
7
  6
CONTINUOUS
 10
186.195856
 20
339.100968
 11
186.195856
 21
371.100968
  0
LINE
  8
1
 62
7
  6
CONTINUOUS
 10
186.195856
 20
371.100968
 11
180.195856
 21
371.100968
  0
LINE
  8
1
 62
7
  6
CONTINUOUS
 10
180.195856
 20
370.724450
 11
186.203399
 21
370.724450
  0
LINE
  8
1
 62
7
  6
CONTINUOUS
 10
180.195856
 20
339.500968
 11
186.195856
 21
339.500968
  0
LINE
  8
1
 62
7
  6
CONTINUOUS
 10
204.178927
 20
370.724450
 11
210.195856
 21
370.724450
  0
LINE
  8
1
 62
7
  6
CONTINUOUS
 10
174.178927
 20
301.500968
 11
180.195856
 21
301.500968
  0
LINE
  8
1
 62
7
  6
CONTINUOUS
 10
179.995856
 20
301.700968
 11
179.995856
 21
326.700968
  0
LINE
  8
1
 62
7
  6
CONTINUOUS
 10
174.395856
 20
301.700968
 11
179.995856
 21
301.700968
  0
LINE
  8
1
 62
7
  6
CONTINUOUS
 10
174.395856
 20
326.700968
 11
174.395856
 21
301.700968
  0
LINE
  8
1
 62
7
  6
CONTINUOUS
 10
179.803399
 20
332.320372
 11
179.803399
 21
327.300968
  0
LINE
  8
1
 62
7
  6
CONTINUOUS
 10
174.578927
 20
327.300968
 11
179.803399
 21
327.300968
  0
LINE
  8
1
 62
7
  6
CONTINUOUS
 10
174.578927
 20
332.320372
 11
174.578927
 21
327.300968
  0
LINE
  8
1
 62
7
  6
CONTINUOUS
 10
174.578927
 20
332.320372
 11
179.803399
 21
332.320372
  0
LINE
  8
1
 62
7
  6
CONTINUOUS
 10
176.689124
 20
327.100968
 11
176.413002
 21
327.300794
  0
LINE
  8
1
 62
7
  6
CONTINUOUS
 10
177.793610
 20
327.100968
 11
178.044630
 21
327.300968
  0
LINE
  8
1
 62
7
  6
CONTINUOUS
 10
176.689124
 20
327.100968
 11
177.793610
 21
327.100968
  0
LINE
  8
1
 62
7
  6
CONTINUOUS
 10
174.395856
 20
326.700968
 11
179.995856
 21
326.700968
  0
LINE
  8
1
 62
7
  6
CONTINUOUS
 10
175.895856
 20
306.900968
 11
175.895856
 21
304.300968
  0
LINE
  8
1
 62
7
  6
CONTINUOUS
 10
175.895856
 20
304.300968
 11
178.495856
 21
304.300968
  0
LINE
  8
1
 62
7
  6
CONTINUOUS
 10
178.495856
 20
304.300968
 11
178.495856
 21
306.900968
  0
LINE
  8
1
 62
7
  6
CONTINUOUS
 10
178.495856
 20
306.900968
 11
175.895856
 21
306.900968
  0
LINE
  8
1
 62
7
  6
CONTINUOUS
 10
175.895856
 20
311.900968
 11
175.895856
 21
309.300968
  0
LINE
  8
1
 62
7
  6
CONTINUOUS
 10
175.895856
 20
309.300968
 11
178.495856
 21
309.300968
  0
LINE
  8
1
 62
7
  6
CONTINUOUS
 10
178.495856
 20
309.300968
 11
178.495856
 21
311.900968
  0
LINE
  8
1
 62
7
  6
CONTINUOUS
 10
178.495856
 20
311.900968
 11
175.895856
 21
311.900968
  0
CIRCLE
  8
1
 62
7
  6
CONTINUOUS
 10
177.195856
 20
315.600968
 40
0.500000
  0
CIRCLE
  8
1
 62
7
  6
CONTINUOUS
 10
177.195856
 20
319.600968
 40
0.500000
  0
CIRCLE
  8
1
 62
7
  6
CONTINUOUS
 10
177.195856
 20
323.600968
 40
0.500000
  0
LINE
  8
1
 62
7
  6
CONTINUOUS
 10
174.195856
 20
333.100968
 11
174.195856
 21
301.100968
  0
LINE
  8
1
 62
7
  6
CONTINUOUS
 10
174.195856
 20
301.100968
 11
180.195856
 21
301.100968
  0
LINE
  8
1
 62
7
  6
CONTINUOUS
 10
180.195856
 20
301.100968
 11
180.195856
 21
333.100968
  0
LINE
  8
1
 62
7
  6
CONTINUOUS
 10
180.195856
 20
333.100968
 11
174.195856
 21
333.100968
  0
LINE
  8
1
 62
7
  6
CONTINUOUS
 10
168.178927
 20
301.500968
 11
174.195856
 21
301.500968
  0
LINE
  8
1
 62
7
  6
CONTINUOUS
 10
173.995856
 20
301.700968
 11
173.995856
 21
326.700968
  0
LINE
  8
1
 62
7
  6
CONTINUOUS
 10
168.395856
 20
301.700968
 11
173.995856
 21
301.700968
  0
LINE
  8
1
 62
7
  6
CONTINUOUS
 10
168.395856
 20
326.700968
 11
168.395856
 21
301.700968
  0
LINE
  8
1
 62
7
  6
CONTINUOUS
 10
173.803399
 20
332.320372
 11
173.803399
 21
327.300968
  0
LINE
  8
1
 62
7
  6
CONTINUOUS
 10
168.578927
 20
327.300968
 11
173.803399
 21
327.300968
  0
LINE
  8
1
 62
7
  6
CONTINUOUS
 10
168.578927
 20
332.320372
 11
168.578927
 21
327.300968
  0
LINE
  8
1
 62
7
  6
CONTINUOUS
 10
168.578927
 20
332.320372
 11
173.803399
 21
332.320372
  0
LINE
  8
1
 62
7
  6
CONTINUOUS
 10
168.178927
 20
332.724450
 11
174.203399
 21
332.724450
  0
LINE
  8
1
 62
7
  6
CONTINUOUS
 10
170.689124
 20
327.100968
 11
170.413002
 21
327.300794
  0
LINE
  8
1
 62
7
  6
CONTINUOUS
 10
171.793610
 20
327.100968
 11
172.044630
 21
327.300968
  0
LINE
  8
1
 62
7
  6
CONTINUOUS
 10
170.689124
 20
327.100968
 11
171.793610
 21
327.100968
  0
LINE
  8
1
 62
7
  6
CONTINUOUS
 10
168.395856
 20
326.700968
 11
173.995856
 21
326.700968
  0
LINE
  8
1
 62
7
  6
CONTINUOUS
 10
169.895856
 20
306.900968
 11
169.895856
 21
304.300968
  0
LINE
  8
1
 62
7
  6
CONTINUOUS
 10
169.895856
 20
304.300968
 11
172.495856
 21
304.300968
  0
LINE
  8
1
 62
7
  6
CONTINUOUS
 10
172.495856
 20
304.300968
 11
172.495856
 21
306.900968
  0
LINE
  8
1
 62
7
  6
CONTINUOUS
 10
172.495856
 20
306.900968
 11
169.895856
 21
306.900968
  0
LINE
  8
1
 62
7
  6
CONTINUOUS
 10
169.895856
 20
311.900968
 11
169.895856
 21
309.300968
  0
LINE
  8
1
 62
7
  6
CONTINUOUS
 10
169.895856
 20
309.300968
 11
172.495856
 21
309.300968
  0
LINE
  8
1
 62
7
  6
CONTINUOUS
 10
172.495856
 20
309.300968
 11
172.495856
 21
311.900968
  0
LINE
  8
1
 62
7
  6
CONTINUOUS
 10
172.495856
 20
311.900968
 11
169.895856
 21
311.900968
  0
CIRCLE
  8
1
 62
7
  6
CONTINUOUS
 10
171.195856
 20
315.600968
 40
0.500000
  0
CIRCLE
  8
1
 62
7
  6
CONTINUOUS
 10
171.195856
 20
319.600968
 40
0.500000
  0
CIRCLE
  8
1
 62
7
  6
CONTINUOUS
 10
171.195856
 20
323.600968
 40
0.500000
  0
LINE
  8
1
 62
7
  6
CONTINUOUS
 10
168.195856
 20
333.100968
 11
168.195856
 21
301.100968
  0
LINE
  8
1
 62
7
  6
CONTINUOUS
 10
168.195856
 20
301.100968
 11
174.195856
 21
301.100968
  0
LINE
  8
1
 62
7
  6
CONTINUOUS
 10
174.195856
 20
301.100968
 11
174.195856
 21
333.100968
  0
LINE
  8
1
 62
7
  6
CONTINUOUS
 10
174.195856
 20
333.100968
 11
168.195856
 21
333.100968
  0
LINE
  8
1
 62
7
  6
CONTINUOUS
 10
162.178927
 20
301.500968
 11
168.195856
 21
301.500968
  0
LINE
  8
1
 62
7
  6
CONTINUOUS
 10
167.995856
 20
301.700968
 11
167.995856
 21
326.700968
  0
LINE
  8
1
 62
7
  6
CONTINUOUS
 10
162.395856
 20
301.700968
 11
167.995856
 21
301.700968
  0
LINE
  8
1
 62
7
  6
CONTINUOUS
 10
162.395856
 20
326.700968
 11
162.395856
 21
301.700968
  0
LINE
  8
1
 62
7
  6
CONTINUOUS
 10
167.803399
 20
332.320372
 11
167.803399
 21
327.300968
  0
LINE
  8
1
 62
7
  6
CONTINUOUS
 10
162.578927
 20
327.300968
 11
167.803399
 21
327.300968
  0
LINE
  8
1
 62
7
  6
CONTINUOUS
 10
162.578927
 20
332.320372
 11
162.578927
 21
327.300968
  0
LINE
  8
1
 62
7
  6
CONTINUOUS
 10
162.578927
 20
332.320372
 11
167.803399
 21
332.320372
  0
LINE
  8
1
 62
7
  6
CONTINUOUS
 10
162.178927
 20
332.724450
 11
168.203399
 21
332.724450
  0
LINE
  8
1
 62
7
  6
CONTINUOUS
 10
164.689124
 20
327.100968
 11
164.413002
 21
327.300794
  0
LINE
  8
1
 62
7
  6
CONTINUOUS
 10
165.793610
 20
327.100968
 11
166.044630
 21
327.300968
  0
LINE
  8
1
 62
7
  6
CONTINUOUS
 10
164.689124
 20
327.100968
 11
165.793610
 21
327.100968
  0
LINE
  8
1
 62
7
  6
CONTINUOUS
 10
162.395856
 20
326.700968
 11
167.995856
 21
326.700968
  0
LINE
  8
1
 62
7
  6
CONTINUOUS
 10
163.895856
 20
306.900968
 11
163.895856
 21
304.300968
  0
LINE
  8
1
 62
7
  6
CONTINUOUS
 10
163.895856
 20
304.300968
 11
166.495856
 21
304.300968
  0
LINE
  8
1
 62
7
  6
CONTINUOUS
 10
166.495856
 20
304.300968
 11
166.495856
 21
306.900968
  0
LINE
  8
1
 62
7
  6
CONTINUOUS
 10
166.495856
 20
306.900968
 11
163.895856
 21
306.900968
  0
LINE
  8
1
 62
7
  6
CONTINUOUS
 10
163.895856
 20
311.900968
 11
163.895856
 21
309.300968
  0
LINE
  8
1
 62
7
  6
CONTINUOUS
 10
163.895856
 20
309.300968
 11
166.495856
 21
309.300968
  0
LINE
  8
1
 62
7
  6
CONTINUOUS
 10
166.495856
 20
309.300968
 11
166.495856
 21
311.900968
  0
LINE
  8
1
 62
7
  6
CONTINUOUS
 10
166.495856
 20
311.900968
 11
163.895856
 21
311.900968
  0
CIRCLE
  8
1
 62
7
  6
CONTINUOUS
 10
165.195856
 20
315.600968
 40
0.500000
  0
CIRCLE
  8
1
 62
7
  6
CONTINUOUS
 10
165.195856
 20
319.600968
 40
0.500000
  0
CIRCLE
  8
1
 62
7
  6
CONTINUOUS
 10
165.195856
 20
323.600968
 40
0.500000
  0
LINE
  8
1
 62
7
  6
CONTINUOUS
 10
162.195856
 20
333.100968
 11
162.195856
 21
301.100968
  0
LINE
  8
1
 62
7
  6
CONTINUOUS
 10
162.195856
 20
301.100968
 11
168.195856
 21
301.100968
  0
LINE
  8
1
 62
7
  6
CONTINUOUS
 10
168.195856
 20
301.100968
 11
168.195856
 21
333.100968
  0
LINE
  8
1
 62
7
  6
CONTINUOUS
 10
168.195856
 20
333.100968
 11
162.195856
 21
333.100968
  0
LINE
  8
1
 62
7
  6
CONTINUOUS
 10
156.178927
 20
301.500968
 11
162.195856
 21
301.500968
  0
LINE
  8
1
 62
7
  6
CONTINUOUS
 10
161.995856
 20
301.700968
 11
161.995856
 21
326.700968
  0
LINE
  8
1
 62
7
  6
CONTINUOUS
 10
156.395856
 20
301.700968
 11
161.995856
 21
301.700968
  0
LINE
  8
1
 62
7
  6
CONTINUOUS
 10
156.395856
 20
326.700968
 11
156.395856
 21
301.700968
  0
LINE
  8
1
 62
7
  6
CONTINUOUS
 10
161.803399
 20
332.320372
 11
161.803399
 21
327.300968
  0
LINE
  8
1
 62
7
  6
CONTINUOUS
 10
156.578927
 20
327.300968
 11
161.803399
 21
327.300968
  0
LINE
  8
1
 62
7
  6
CONTINUOUS
 10
156.578927
 20
332.320372
 11
156.578927
 21
327.300968
  0
LINE
  8
1
 62
7
  6
CONTINUOUS
 10
156.578927
 20
332.320372
 11
161.803399
 21
332.320372
  0
LINE
  8
1
 62
7
  6
CONTINUOUS
 10
156.178927
 20
332.724450
 11
162.203399
 21
332.724450
  0
LINE
  8
1
 62
7
  6
CONTINUOUS
 10
158.689124
 20
327.100968
 11
158.413002
 21
327.300794
  0
LINE
  8
1
 62
7
  6
CONTINUOUS
 10
159.793610
 20
327.100968
 11
160.044630
 21
327.300968
  0
LINE
  8
1
 62
7
  6
CONTINUOUS
 10
158.689124
 20
327.100968
 11
159.793610
 21
327.100968
  0
LINE
  8
1
 62
7
  6
CONTINUOUS
 10
156.395856
 20
326.700968
 11
161.995856
 21
326.700968
  0
LINE
  8
1
 62
7
  6
CONTINUOUS
 10
157.895856
 20
306.900968
 11
157.895856
 21
304.300968
  0
LINE
  8
1
 62
7
  6
CONTINUOUS
 10
157.895856
 20
304.300968
 11
160.495856
 21
304.300968
  0
LINE
  8
1
 62
7
  6
CONTINUOUS
 10
160.495856
 20
304.300968
 11
160.495856
 21
306.900968
  0
LINE
  8
1
 62
7
  6
CONTINUOUS
 10
160.495856
 20
306.900968
 11
157.895856
 21
306.900968
  0
LINE
  8
1
 62
7
  6
CONTINUOUS
 10
157.895856
 20
311.900968
 11
157.895856
 21
309.300968
  0
LINE
  8
1
 62
7
  6
CONTINUOUS
 10
157.895856
 20
309.300968
 11
160.495856
 21
309.300968
  0
LINE
  8
1
 62
7
  6
CONTINUOUS
 10
160.495856
 20
309.300968
 11
160.495856
 21
311.900968
  0
LINE
  8
1
 62
7
  6
CONTINUOUS
 10
160.495856
 20
311.900968
 11
157.895856
 21
311.900968
  0
CIRCLE
  8
1
 62
7
  6
CONTINUOUS
 10
159.195856
 20
315.600968
 40
0.500000
  0
CIRCLE
  8
1
 62
7
  6
CONTINUOUS
 10
159.195856
 20
319.600968
 40
0.500000
  0
CIRCLE
  8
1
 62
7
  6
CONTINUOUS
 10
159.195856
 20
323.600968
 40
0.500000
  0
LINE
  8
1
 62
7
  6
CONTINUOUS
 10
156.195856
 20
333.100968
 11
156.195856
 21
301.100968
  0
LINE
  8
1
 62
7
  6
CONTINUOUS
 10
156.195856
 20
301.100968
 11
162.195856
 21
301.100968
  0
LINE
  8
1
 62
7
  6
CONTINUOUS
 10
162.195856
 20
301.100968
 11
162.195856
 21
333.100968
  0
LINE
  8
1
 62
7
  6
CONTINUOUS
 10
162.195856
 20
333.100968
 11
156.195856
 21
333.100968
  0
LINE
  8
1
 62
7
  6
CONTINUOUS
 10
155.995856
 20
301.700968
 11
155.995856
 21
326.700968
  0
LINE
  8
1
 62
7
  6
CONTINUOUS
 10
150.395856
 20
301.700968
 11
155.995856
 21
301.700968
  0
LINE
  8
1
 62
7
  6
CONTINUOUS
 10
150.395856
 20
326.700968
 11
150.395856
 21
301.700968
  0
LINE
  8
1
 62
7
  6
CONTINUOUS
 10
155.803399
 20
332.320372
 11
155.803399
 21
327.300968
  0
LINE
  8
1
 62
7
  6
CONTINUOUS
 10
150.578927
 20
327.300968
 11
155.803399
 21
327.300968
  0
LINE
  8
1
 62
7
  6
CONTINUOUS
 10
150.578927
 20
332.320372
 11
150.578927
 21
327.300968
  0
LINE
  8
1
 62
7
  6
CONTINUOUS
 10
150.578927
 20
332.320372
 11
155.803399
 21
332.320372
  0
LINE
  8
1
 62
7
  6
CONTINUOUS
 10
152.689124
 20
327.100968
 11
152.413002
 21
327.300794
  0
LINE
  8
1
 62
7
  6
CONTINUOUS
 10
153.793610
 20
327.100968
 11
154.044630
 21
327.300968
  0
LINE
  8
1
 62
7
  6
CONTINUOUS
 10
152.689124
 20
327.100968
 11
153.793610
 21
327.100968
  0
LINE
  8
1
 62
7
  6
CONTINUOUS
 10
150.395856
 20
326.700968
 11
155.995856
 21
326.700968
  0
LINE
  8
1
 62
7
  6
CONTINUOUS
 10
151.895856
 20
306.900968
 11
151.895856
 21
304.300968
  0
LINE
  8
1
 62
7
  6
CONTINUOUS
 10
151.895856
 20
304.300968
 11
154.495856
 21
304.300968
  0
LINE
  8
1
 62
7
  6
CONTINUOUS
 10
154.495856
 20
304.300968
 11
154.495856
 21
306.900968
  0
LINE
  8
1
 62
7
  6
CONTINUOUS
 10
154.495856
 20
306.900968
 11
151.895856
 21
306.900968
  0
LINE
  8
1
 62
7
  6
CONTINUOUS
 10
151.895856
 20
311.900968
 11
151.895856
 21
309.300968
  0
LINE
  8
1
 62
7
  6
CONTINUOUS
 10
151.895856
 20
309.300968
 11
154.495856
 21
309.300968
  0
LINE
  8
1
 62
7
  6
CONTINUOUS
 10
154.495856
 20
309.300968
 11
154.495856
 21
311.900968
  0
LINE
  8
1
 62
7
  6
CONTINUOUS
 10
154.495856
 20
311.900968
 11
151.895856
 21
311.900968
  0
CIRCLE
  8
1
 62
7
  6
CONTINUOUS
 10
153.195856
 20
315.600968
 40
0.500000
  0
CIRCLE
  8
1
 62
7
  6
CONTINUOUS
 10
153.195856
 20
319.600968
 40
0.500000
  0
CIRCLE
  8
1
 62
7
  6
CONTINUOUS
 10
153.195856
 20
323.600968
 40
0.500000
  0
LINE
  8
1
 62
7
  6
CONTINUOUS
 10
150.195856
 20
333.100968
 11
150.195856
 21
301.100968
  0
LINE
  8
1
 62
7
  6
CONTINUOUS
 10
150.195856
 20
301.100968
 11
156.195856
 21
301.100968
  0
LINE
  8
1
 62
7
  6
CONTINUOUS
 10
156.195856
 20
301.100968
 11
156.195856
 21
333.100968
  0
LINE
  8
1
 62
7
  6
CONTINUOUS
 10
156.195856
 20
333.100968
 11
150.195856
 21
333.100968
  0
LINE
  8
1
 62
7
  6
CONTINUOUS
 10
150.195856
 20
332.724450
 11
156.203399
 21
332.724450
  0
LINE
  8
1
 62
7
  6
CONTINUOUS
 10
150.195856
 20
301.500968
 11
156.195856
 21
301.500968
  0
LINE
  8
1
 62
7
  6
CONTINUOUS
 10
174.178927
 20
332.724450
 11
180.195856
 21
332.724450
  0
LINE
  8
1
 62
7
  6
CONTINUOUS
 10
204.178927
 20
301.500968
 11
210.195856
 21
301.500968
  0
LINE
  8
1
 62
7
  6
CONTINUOUS
 10
209.995856
 20
301.700968
 11
209.995856
 21
326.700968
  0
LINE
  8
1
 62
7
  6
CONTINUOUS
 10
204.395856
 20
301.700968
 11
209.995856
 21
301.700968
  0
LINE
  8
1
 62
7
  6
CONTINUOUS
 10
204.395856
 20
326.700968
 11
204.395856
 21
301.700968
  0
LINE
  8
1
 62
7
  6
CONTINUOUS
 10
209.803399
 20
332.320372
 11
209.803399
 21
327.300968
  0
LINE
  8
1
 62
7
  6
CONTINUOUS
 10
204.578927
 20
327.300968
 11
209.803399
 21
327.300968
  0
LINE
  8
1
 62
7
  6
CONTINUOUS
 10
204.578927
 20
332.320372
 11
204.578927
 21
327.300968
  0
LINE
  8
1
 62
7
  6
CONTINUOUS
 10
204.578927
 20
332.320372
 11
209.803399
 21
332.320372
  0
LINE
  8
1
 62
7
  6
CONTINUOUS
 10
206.689124
 20
327.100968
 11
206.413002
 21
327.300794
  0
LINE
  8
1
 62
7
  6
CONTINUOUS
 10
207.793610
 20
327.100968
 11
208.044630
 21
327.300968
  0
LINE
  8
1
 62
7
  6
CONTINUOUS
 10
206.689124
 20
327.100968
 11
207.793610
 21
327.100968
  0
LINE
  8
1
 62
7
  6
CONTINUOUS
 10
204.395856
 20
326.700968
 11
209.995856
 21
326.700968
  0
LINE
  8
1
 62
7
  6
CONTINUOUS
 10
205.895856
 20
306.900968
 11
205.895856
 21
304.300968
  0
LINE
  8
1
 62
7
  6
CONTINUOUS
 10
205.895856
 20
304.300968
 11
208.495856
 21
304.300968
  0
LINE
  8
1
 62
7
  6
CONTINUOUS
 10
208.495856
 20
304.300968
 11
208.495856
 21
306.900968
  0
LINE
  8
1
 62
7
  6
CONTINUOUS
 10
208.495856
 20
306.900968
 11
205.895856
 21
306.900968
  0
LINE
  8
1
 62
7
  6
CONTINUOUS
 10
205.895856
 20
311.900968
 11
205.895856
 21
309.300968
  0
LINE
  8
1
 62
7
  6
CONTINUOUS
 10
205.895856
 20
309.300968
 11
208.495856
 21
309.300968
  0
LINE
  8
1
 62
7
  6
CONTINUOUS
 10
208.495856
 20
309.300968
 11
208.495856
 21
311.900968
  0
LINE
  8
1
 62
7
  6
CONTINUOUS
 10
208.495856
 20
311.900968
 11
205.895856
 21
311.900968
  0
CIRCLE
  8
1
 62
7
  6
CONTINUOUS
 10
207.195856
 20
315.600968
 40
0.500000
  0
CIRCLE
  8
1
 62
7
  6
CONTINUOUS
 10
207.195856
 20
319.600968
 40
0.500000
  0
CIRCLE
  8
1
 62
7
  6
CONTINUOUS
 10
207.195856
 20
323.600968
 40
0.500000
  0
LINE
  8
1
 62
7
  6
CONTINUOUS
 10
204.195856
 20
333.100968
 11
204.195856
 21
301.100968
  0
LINE
  8
1
 62
7
  6
CONTINUOUS
 10
204.195856
 20
301.100968
 11
210.195856
 21
301.100968
  0
LINE
  8
1
 62
7
  6
CONTINUOUS
 10
210.195856
 20
301.100968
 11
210.195856
 21
333.100968
  0
LINE
  8
1
 62
7
  6
CONTINUOUS
 10
210.195856
 20
333.100968
 11
204.195856
 21
333.100968
  0
LINE
  8
1
 62
7
  6
CONTINUOUS
 10
198.178927
 20
301.500968
 11
204.195856
 21
301.500968
  0
LINE
  8
1
 62
7
  6
CONTINUOUS
 10
203.995856
 20
301.700968
 11
203.995856
 21
326.700968
  0
LINE
  8
1
 62
7
  6
CONTINUOUS
 10
198.395856
 20
301.700968
 11
203.995856
 21
301.700968
  0
LINE
  8
1
 62
7
  6
CONTINUOUS
 10
198.395856
 20
326.700968
 11
198.395856
 21
301.700968
  0
LINE
  8
1
 62
7
  6
CONTINUOUS
 10
203.803399
 20
332.320372
 11
203.803399
 21
327.300968
  0
LINE
  8
1
 62
7
  6
CONTINUOUS
 10
198.578927
 20
327.300968
 11
203.803399
 21
327.300968
  0
LINE
  8
1
 62
7
  6
CONTINUOUS
 10
198.578927
 20
332.320372
 11
198.578927
 21
327.300968
  0
LINE
  8
1
 62
7
  6
CONTINUOUS
 10
198.578927
 20
332.320372
 11
203.803399
 21
332.320372
  0
LINE
  8
1
 62
7
  6
CONTINUOUS
 10
198.178927
 20
332.724450
 11
204.203399
 21
332.724450
  0
LINE
  8
1
 62
7
  6
CONTINUOUS
 10
200.689124
 20
327.100968
 11
200.413002
 21
327.300794
  0
LINE
  8
1
 62
7
  6
CONTINUOUS
 10
201.793610
 20
327.100968
 11
202.044630
 21
327.300968
  0
LINE
  8
1
 62
7
  6
CONTINUOUS
 10
200.689124
 20
327.100968
 11
201.793610
 21
327.100968
  0
LINE
  8
1
 62
7
  6
CONTINUOUS
 10
198.395856
 20
326.700968
 11
203.995856
 21
326.700968
  0
LINE
  8
1
 62
7
  6
CONTINUOUS
 10
199.895856
 20
306.900968
 11
199.895856
 21
304.300968
  0
LINE
  8
1
 62
7
  6
CONTINUOUS
 10
199.895856
 20
304.300968
 11
202.495856
 21
304.300968
  0
LINE
  8
1
 62
7
  6
CONTINUOUS
 10
202.495856
 20
304.300968
 11
202.495856
 21
306.900968
  0
LINE
  8
1
 62
7
  6
CONTINUOUS
 10
202.495856
 20
306.900968
 11
199.895856
 21
306.900968
  0
LINE
  8
1
 62
7
  6
CONTINUOUS
 10
199.895856
 20
311.900968
 11
199.895856
 21
309.300968
  0
LINE
  8
1
 62
7
  6
CONTINUOUS
 10
199.895856
 20
309.300968
 11
202.495856
 21
309.300968
  0
LINE
  8
1
 62
7
  6
CONTINUOUS
 10
202.495856
 20
309.300968
 11
202.495856
 21
311.900968
  0
LINE
  8
1
 62
7
  6
CONTINUOUS
 10
202.495856
 20
311.900968
 11
199.895856
 21
311.900968
  0
CIRCLE
  8
1
 62
7
  6
CONTINUOUS
 10
201.195856
 20
315.600968
 40
0.500000
  0
CIRCLE
  8
1
 62
7
  6
CONTINUOUS
 10
201.195856
 20
319.600968
 40
0.500000
  0
CIRCLE
  8
1
 62
7
  6
CONTINUOUS
 10
201.195856
 20
323.600968
 40
0.500000
  0
LINE
  8
1
 62
7
  6
CONTINUOUS
 10
198.195856
 20
333.100968
 11
198.195856
 21
301.100968
  0
LINE
  8
1
 62
7
  6
CONTINUOUS
 10
198.195856
 20
301.100968
 11
204.195856
 21
301.100968
  0
LINE
  8
1
 62
7
  6
CONTINUOUS
 10
204.195856
 20
301.100968
 11
204.195856
 21
333.100968
  0
LINE
  8
1
 62
7
  6
CONTINUOUS
 10
204.195856
 20
333.100968
 11
198.195856
 21
333.100968
  0
LINE
  8
1
 62
7
  6
CONTINUOUS
 10
192.178927
 20
301.500968
 11
198.195856
 21
301.500968
  0
LINE
  8
1
 62
7
  6
CONTINUOUS
 10
197.995856
 20
301.700968
 11
197.995856
 21
326.700968
  0
LINE
  8
1
 62
7
  6
CONTINUOUS
 10
192.395856
 20
301.700968
 11
197.995856
 21
301.700968
  0
LINE
  8
1
 62
7
  6
CONTINUOUS
 10
192.395856
 20
326.700968
 11
192.395856
 21
301.700968
  0
LINE
  8
1
 62
7
  6
CONTINUOUS
 10
197.803399
 20
332.320372
 11
197.803399
 21
327.300968
  0
LINE
  8
1
 62
7
  6
CONTINUOUS
 10
192.578927
 20
327.300968
 11
197.803399
 21
327.300968
  0
LINE
  8
1
 62
7
  6
CONTINUOUS
 10
192.578927
 20
332.320372
 11
192.578927
 21
327.300968
  0
LINE
  8
1
 62
7
  6
CONTINUOUS
 10
192.578927
 20
332.320372
 11
197.803399
 21
332.320372
  0
LINE
  8
1
 62
7
  6
CONTINUOUS
 10
192.178927
 20
332.724450
 11
198.203399
 21
332.724450
  0
LINE
  8
1
 62
7
  6
CONTINUOUS
 10
194.689124
 20
327.100968
 11
194.413002
 21
327.300794
  0
LINE
  8
1
 62
7
  6
CONTINUOUS
 10
195.793610
 20
327.100968
 11
196.044630
 21
327.300968
  0
LINE
  8
1
 62
7
  6
CONTINUOUS
 10
194.689124
 20
327.100968
 11
195.793610
 21
327.100968
  0
LINE
  8
1
 62
7
  6
CONTINUOUS
 10
192.395856
 20
326.700968
 11
197.995856
 21
326.700968
  0
LINE
  8
1
 62
7
  6
CONTINUOUS
 10
193.895856
 20
306.900968
 11
193.895856
 21
304.300968
  0
LINE
  8
1
 62
7
  6
CONTINUOUS
 10
193.895856
 20
304.300968
 11
196.495856
 21
304.300968
  0
LINE
  8
1
 62
7
  6
CONTINUOUS
 10
196.495856
 20
304.300968
 11
196.495856
 21
306.900968
  0
LINE
  8
1
 62
7
  6
CONTINUOUS
 10
196.495856
 20
306.900968
 11
193.895856
 21
306.900968
  0
LINE
  8
1
 62
7
  6
CONTINUOUS
 10
193.895856
 20
311.900968
 11
193.895856
 21
309.300968
  0
LINE
  8
1
 62
7
  6
CONTINUOUS
 10
193.895856
 20
309.300968
 11
196.495856
 21
309.300968
  0
LINE
  8
1
 62
7
  6
CONTINUOUS
 10
196.495856
 20
309.300968
 11
196.495856
 21
311.900968
  0
LINE
  8
1
 62
7
  6
CONTINUOUS
 10
196.495856
 20
311.900968
 11
193.895856
 21
311.900968
  0
CIRCLE
  8
1
 62
7
  6
CONTINUOUS
 10
195.195856
 20
315.600968
 40
0.500000
  0
CIRCLE
  8
1
 62
7
  6
CONTINUOUS
 10
195.195856
 20
319.600968
 40
0.500000
  0
CIRCLE
  8
1
 62
7
  6
CONTINUOUS
 10
195.195856
 20
323.600968
 40
0.500000
  0
LINE
  8
1
 62
7
  6
CONTINUOUS
 10
192.195856
 20
333.100968
 11
192.195856
 21
301.100968
  0
LINE
  8
1
 62
7
  6
CONTINUOUS
 10
192.195856
 20
301.100968
 11
198.195856
 21
301.100968
  0
LINE
  8
1
 62
7
  6
CONTINUOUS
 10
198.195856
 20
301.100968
 11
198.195856
 21
333.100968
  0
LINE
  8
1
 62
7
  6
CONTINUOUS
 10
198.195856
 20
333.100968
 11
192.195856
 21
333.100968
  0
LINE
  8
1
 62
7
  6
CONTINUOUS
 10
186.178927
 20
301.500968
 11
192.195856
 21
301.500968
  0
LINE
  8
1
 62
7
  6
CONTINUOUS
 10
191.995856
 20
301.700968
 11
191.995856
 21
326.700968
  0
LINE
  8
1
 62
7
  6
CONTINUOUS
 10
186.395856
 20
301.700968
 11
191.995856
 21
301.700968
  0
LINE
  8
1
 62
7
  6
CONTINUOUS
 10
186.395856
 20
326.700968
 11
186.395856
 21
301.700968
  0
LINE
  8
1
 62
7
  6
CONTINUOUS
 10
191.803399
 20
332.320372
 11
191.803399
 21
327.300968
  0
LINE
  8
1
 62
7
  6
CONTINUOUS
 10
186.578927
 20
327.300968
 11
191.803399
 21
327.300968
  0
LINE
  8
1
 62
7
  6
CONTINUOUS
 10
186.578927
 20
332.320372
 11
186.578927
 21
327.300968
  0
LINE
  8
1
 62
7
  6
CONTINUOUS
 10
186.578927
 20
332.320372
 11
191.803399
 21
332.320372
  0
LINE
  8
1
 62
7
  6
CONTINUOUS
 10
186.178927
 20
332.724450
 11
192.203399
 21
332.724450
  0
LINE
  8
1
 62
7
  6
CONTINUOUS
 10
188.689124
 20
327.100968
 11
188.413002
 21
327.300794
  0
LINE
  8
1
 62
7
  6
CONTINUOUS
 10
189.793610
 20
327.100968
 11
190.044630
 21
327.300968
  0
LINE
  8
1
 62
7
  6
CONTINUOUS
 10
188.689124
 20
327.100968
 11
189.793610
 21
327.100968
  0
LINE
  8
1
 62
7
  6
CONTINUOUS
 10
186.395856
 20
326.700968
 11
191.995856
 21
326.700968
  0
LINE
  8
1
 62
7
  6
CONTINUOUS
 10
187.895856
 20
306.900968
 11
187.895856
 21
304.300968
  0
LINE
  8
1
 62
7
  6
CONTINUOUS
 10
187.895856
 20
304.300968
 11
190.495856
 21
304.300968
  0
LINE
  8
1
 62
7
  6
CONTINUOUS
 10
190.495856
 20
304.300968
 11
190.495856
 21
306.900968
  0
LINE
  8
1
 62
7
  6
CONTINUOUS
 10
190.495856
 20
306.900968
 11
187.895856
 21
306.900968
  0
LINE
  8
1
 62
7
  6
CONTINUOUS
 10
187.895856
 20
311.900968
 11
187.895856
 21
309.300968
  0
LINE
  8
1
 62
7
  6
CONTINUOUS
 10
187.895856
 20
309.300968
 11
190.495856
 21
309.300968
  0
LINE
  8
1
 62
7
  6
CONTINUOUS
 10
190.495856
 20
309.300968
 11
190.495856
 21
311.900968
  0
LINE
  8
1
 62
7
  6
CONTINUOUS
 10
190.495856
 20
311.900968
 11
187.895856
 21
311.900968
  0
CIRCLE
  8
1
 62
7
  6
CONTINUOUS
 10
189.195856
 20
315.600968
 40
0.500000
  0
CIRCLE
  8
1
 62
7
  6
CONTINUOUS
 10
189.195856
 20
319.600968
 40
0.500000
  0
CIRCLE
  8
1
 62
7
  6
CONTINUOUS
 10
189.195856
 20
323.600968
 40
0.500000
  0
LINE
  8
1
 62
7
  6
CONTINUOUS
 10
186.195856
 20
333.100968
 11
186.195856
 21
301.100968
  0
LINE
  8
1
 62
7
  6
CONTINUOUS
 10
186.195856
 20
301.100968
 11
192.195856
 21
301.100968
  0
LINE
  8
1
 62
7
  6
CONTINUOUS
 10
192.195856
 20
301.100968
 11
192.195856
 21
333.100968
  0
LINE
  8
1
 62
7
  6
CONTINUOUS
 10
192.195856
 20
333.100968
 11
186.195856
 21
333.100968
  0
LINE
  8
1
 62
7
  6
CONTINUOUS
 10
185.995856
 20
301.700968
 11
185.995856
 21
326.700968
  0
LINE
  8
1
 62
7
  6
CONTINUOUS
 10
180.395856
 20
301.700968
 11
185.995856
 21
301.700968
  0
LINE
  8
1
 62
7
  6
CONTINUOUS
 10
180.395856
 20
326.700968
 11
180.395856
 21
301.700968
  0
LINE
  8
1
 62
7
  6
CONTINUOUS
 10
185.803399
 20
332.320372
 11
185.803399
 21
327.300968
  0
LINE
  8
1
 62
7
  6
CONTINUOUS
 10
180.578927
 20
327.300968
 11
185.803399
 21
327.300968
  0
LINE
  8
1
 62
7
  6
CONTINUOUS
 10
180.578927
 20
332.320372
 11
180.578927
 21
327.300968
  0
LINE
  8
1
 62
7
  6
CONTINUOUS
 10
180.578927
 20
332.320372
 11
185.803399
 21
332.320372
  0
LINE
  8
1
 62
7
  6
CONTINUOUS
 10
182.689124
 20
327.100968
 11
182.413002
 21
327.300794
  0
LINE
  8
1
 62
7
  6
CONTINUOUS
 10
183.793610
 20
327.100968
 11
184.044630
 21
327.300968
  0
LINE
  8
1
 62
7
  6
CONTINUOUS
 10
182.689124
 20
327.100968
 11
183.793610
 21
327.100968
  0
LINE
  8
1
 62
7
  6
CONTINUOUS
 10
180.395856
 20
326.700968
 11
185.995856
 21
326.700968
  0
LINE
  8
1
 62
7
  6
CONTINUOUS
 10
181.895856
 20
306.900968
 11
181.895856
 21
304.300968
  0
LINE
  8
1
 62
7
  6
CONTINUOUS
 10
181.895856
 20
304.300968
 11
184.495856
 21
304.300968
  0
LINE
  8
1
 62
7
  6
CONTINUOUS
 10
184.495856
 20
304.300968
 11
184.495856
 21
306.900968
  0
LINE
  8
1
 62
7
  6
CONTINUOUS
 10
184.495856
 20
306.900968
 11
181.895856
 21
306.900968
  0
LINE
  8
1
 62
7
  6
CONTINUOUS
 10
181.895856
 20
311.900968
 11
181.895856
 21
309.300968
  0
LINE
  8
1
 62
7
  6
CONTINUOUS
 10
181.895856
 20
309.300968
 11
184.495856
 21
309.300968
  0
LINE
  8
1
 62
7
  6
CONTINUOUS
 10
184.495856
 20
309.300968
 11
184.495856
 21
311.900968
  0
LINE
  8
1
 62
7
  6
CONTINUOUS
 10
184.495856
 20
311.900968
 11
181.895856
 21
311.900968
  0
CIRCLE
  8
1
 62
7
  6
CONTINUOUS
 10
183.195856
 20
315.600968
 40
0.500000
  0
CIRCLE
  8
1
 62
7
  6
CONTINUOUS
 10
183.195856
 20
319.600968
 40
0.500000
  0
CIRCLE
  8
1
 62
7
  6
CONTINUOUS
 10
183.195856
 20
323.600968
 40
0.500000
  0
LINE
  8
1
 62
7
  6
CONTINUOUS
 10
180.195856
 20
333.100968
 11
180.195856
 21
301.100968
  0
LINE
  8
1
 62
7
  6
CONTINUOUS
 10
180.195856
 20
301.100968
 11
186.195856
 21
301.100968
  0
LINE
  8
1
 62
7
  6
CONTINUOUS
 10
186.195856
 20
301.100968
 11
186.195856
 21
333.100968
  0
LINE
  8
1
 62
7
  6
CONTINUOUS
 10
186.195856
 20
333.100968
 11
180.195856
 21
333.100968
  0
LINE
  8
1
 62
7
  6
CONTINUOUS
 10
180.195856
 20
332.724450
 11
186.203399
 21
332.724450
  0
LINE
  8
1
 62
7
  6
CONTINUOUS
 10
180.195856
 20
301.500968
 11
186.195856
 21
301.500968
  0
LINE
  8
1
 62
7
  6
CONTINUOUS
 10
204.178927
 20
332.724450
 11
210.195856
 21
332.724450
  0
CIRCLE
  8
1
 62
7
  6
CONTINUOUS
 10
183.569338
 20
291.974660
 40
0.200000
  0
CIRCLE
  8
1
 62
7
  6
CONTINUOUS
 10
182.569338
 20
290.974660
 40
0.200000
  0
CIRCLE
  8
1
 62
7
  6
CONTINUOUS
 10
181.569338
 20
291.974660
 40
0.200000
  0
CIRCLE
  8
1
 62
7
  6
CONTINUOUS
 10
182.569338
 20
292.974660
 40
0.200000
  0
CIRCLE
  8
1
 62
7
  6
CONTINUOUS
 10
182.569338
 20
291.974660
 40
0.200000
  0
LINE
  8
1
 62
7
  6
CONTINUOUS
 10
210.669338
 20
294.774660
 11
185.669338
 21
294.774660
  0
LINE
  8
1
 62
7
  6
CONTINUOUS
 10
210.669338
 20
289.174660
 11
210.669338
 21
294.774660
  0
LINE
  8
1
 62
7
  6
CONTINUOUS
 10
185.669338
 20
289.174660
 11
210.669338
 21
289.174660
  0
LINE
  8
1
 62
7
  6
CONTINUOUS
 10
180.049935
 20
294.582203
 11
185.069338
 21
294.582203
  0
LINE
  8
1
 62
7
  6
CONTINUOUS
 10
185.069338
 20
289.357731
 11
185.069338
 21
294.582203
  0
LINE
  8
1
 62
7
  6
CONTINUOUS
 10
180.049935
 20
289.357731
 11
185.069338
 21
289.357731
  0
LINE
  8
1
 62
7
  6
CONTINUOUS
 10
180.049935
 20
289.357731
 11
180.049935
 21
294.582203
  0
LINE
  8
1
 62
7
  6
CONTINUOUS
 10
185.669338
 20
289.174660
 11
185.669338
 21
294.774660
  0
LINE
  8
1
 62
7
  6
CONTINUOUS
 10
205.469338
 20
290.674660
 11
208.069338
 21
290.674660
  0
LINE
  8
1
 62
7
  6
CONTINUOUS
 10
208.069338
 20
290.674660
 11
208.069338
 21
293.274660
  0
LINE
  8
1
 62
7
  6
CONTINUOUS
 10
208.069338
 20
293.274660
 11
205.469338
 21
293.274660
  0
LINE
  8
1
 62
7
  6
CONTINUOUS
 10
205.469338
 20
293.274660
 11
205.469338
 21
290.674660
  0
LINE
  8
1
 62
7
  6
CONTINUOUS
 10
200.469338
 20
290.674660
 11
203.069338
 21
290.674660
  0
LINE
  8
1
 62
7
  6
CONTINUOUS
 10
203.069338
 20
290.674660
 11
203.069338
 21
293.274660
  0
LINE
  8
1
 62
7
  6
CONTINUOUS
 10
203.069338
 20
293.274660
 11
200.469338
 21
293.274660
  0
LINE
  8
1
 62
7
  6
CONTINUOUS
 10
200.469338
 20
293.274660
 11
200.469338
 21
290.674660
  0
CIRCLE
  8
1
 62
7
  6
CONTINUOUS
 10
196.769338
 20
291.974660
 40
0.500000
  0
CIRCLE
  8
1
 62
7
  6
CONTINUOUS
 10
192.769338
 20
291.974660
 40
0.500000
  0
CIRCLE
  8
1
 62
7
  6
CONTINUOUS
 10
188.769338
 20
291.974660
 40
0.500000
  0
LINE
  8
1
 62
7
  6
CONTINUOUS
 10
179.269338
 20
288.974660
 11
211.269338
 21
288.974660
  0
LINE
  8
1
 62
7
  6
CONTINUOUS
 10
211.269338
 20
288.974660
 11
211.269338
 21
294.974660
  0
LINE
  8
1
 62
7
  6
CONTINUOUS
 10
211.269338
 20
294.974660
 11
179.269338
 21
294.974660
  0
LINE
  8
1
 62
7
  6
CONTINUOUS
 10
179.269338
 20
294.974660
 11
179.269338
 21
288.974660
  0
LINE
  8
1
 62
7
  6
CONTINUOUS
 10
179.645856
 20
288.974660
 11
179.645856
 21
294.974660
  0
LINE
  8
1
 62
7
  6
CONTINUOUS
 10
210.869338
 20
288.974660
 11
210.869338
 21
294.974660
  0
LINE
  8
1
 62
7
  6
CONTINUOUS
 10
289.645856
 20
471.100968
 11
289.645856
 21
271.100968
  0
LINE
  8
1
 62
7
  6
CONTINUOUS
 10
292.645857
 20
471.100968
 11
292.645857
 21
271.100968
  0
LINE
  8
1
 62
7
  6
CONTINUOUS
 10
289.645856
 20
271.100968
 11
321.645856
 21
271.100968
  0
LINE
  8
1
 62
7
  6
CONTINUOUS
 10
321.645856
 20
271.100968
 11
321.645856
 21
471.100968
  0
LINE
  8
1
 62
7
  6
CONTINUOUS
 10
321.645856
 20
471.100968
 11
289.645856
 21
471.100968
  0
CIRCLE
  8
1
 62
7
  6
CONTINUOUS
 10
375.645856
 20
283.100968
 40
1.600000
  0
LINE
  8
1
 62
7
  6
CONTINUOUS
 10
491.645856
 20
271.100968
 11
371.645856
 21
271.100968
  0
CIRCLE
  8
1
 62
7
  6
CONTINUOUS
 10
487.645856
 20
283.100968
 40
1.600000
  0
LINE
  8
1
 62
7
  6
CONTINUOUS
 10
406.645856
 20
284.100968
 11
406.645856
 21
276.100968
  0
LINE
  8
1
 62
7
  6
CONTINUOUS
 10
456.645856
 20
276.100968
 11
456.645856
 21
284.100968
  0
LINE
  8
1
 62
7
  6
CONTINUOUS
 10
406.645856
 20
276.100968
 11
456.645856
 21
276.100968
  0
LINE
  8
1
 62
7
  6
CONTINUOUS
 10
456.645856
 20
284.100968
 11
406.645856
 21
284.100968
  0
LINE
  8
1
 62
7
  6
DASHDOT
 10
403.591851
 20
280.100968
 11
460.825853
 21
280.100968
  0
LINE
  8
1
 62
7
  6
CONTINUOUS
 10
371.645856
 20
471.100968
 11
371.645856
 21
446.630314
  0
CIRCLE
  8
1
 62
7
  6
CONTINUOUS
 10
375.645856
 20
459.100968
 40
1.600000
  0
LINE
  8
1
 62
7
  6
CONTINUOUS
 10
371.645856
 20
471.100968
 11
491.645856
 21
471.100968
  0
CIRCLE
  8
1
 62
7
  6
CONTINUOUS
 10
487.645856
 20
459.100968
 40
1.600000
  0
LINE
  8
1
 62
7
  6
CONTINUOUS
 10
371.645856
 20
271.100968
 11
371.645856
 21
448.853790
  0
LINE
  8
1
 62
7
  6
CONTINUOUS
 10
491.645856
 20
471.100968
 11
491.645856
 21
271.100968
  0
LINE
  8
1
 62
7
  6
DASHDOT
 10
431.645856
 20
475.100968
 11
431.645856
 21
269.256679
  0
LINE
  8
1
 62
7
  6
CONTINUOUS
 10
129.945858
 20
371.000968
 11
108.103057
 21
380.387570
  0
LINE
  8
1
 62
7
  6
CONTINUOUS
 10
108.103057
 20
380.387570
 11
63.549142
 21
380.387570
  0
TEXT
  8
1
 62
7
  6
CONTINUOUS
 10
63.549142
 20
380.387570
 40
6.000000
 41
0.944444
  1
平面ハンドル
  7
KANJI
 50
0.000000
 51
0.000000
  0
LINE
  8
1
 62
7
  6
CONTINUOUS
 10
129.945858
 20
371.000968
 11
125.987301
 21
371.575274
  0
LINE
  8
1
 62
7
  6
CONTINUOUS
 10
129.945858
 20
371.000968
 11
126.804800
 21
373.477610
  0
LINE
  8
1
 62
7
  6
CONTINUOUS
 10
134.945857
 20
382.200968
 11
134.945857
 21
359.800968
  0
LINE
  8
1
 62
7
  6
CONTINUOUS
 10
134.945857
 20
359.800968
 11
130.345857
 21
359.800968
  0
LINE
  8
1
 62
7
  6
CONTINUOUS
 10
130.345857
 20
359.800968
 11
130.345857
 21
382.200968
  0
LINE
  8
1
 62
7
  6
CONTINUOUS
 10
130.345857
 20
382.200968
 11
134.945857
 21
382.200968
  0
ARC
  8
1
 62
7
  6
CONTINUOUS
 10
132.645857
 20
377.635282
 40
1.700000
 50
0.000000
 51
180.000000
  0
ARC
  8
1
 62
7
  6
CONTINUOUS
 10
134.845857
 20
359.900968
 40
0.600000
 50
-90.000000
 51
0.000000
  0
LINE
  8
1
 62
7
  6
CONTINUOUS
 10
134.845857
 20
359.300968
 11
130.445857
 21
359.300968
  0
ARC
  8
1
 62
7
  6
CONTINUOUS
 10
130.445857
 20
359.900968
 40
0.600000
 50
180.000000
 51
-90.000000
  0
LINE
  8
1
 62
7
  6
CONTINUOUS
 10
135.445857
 20
382.100968
 11
135.445857
 21
359.900968
  0
ARC
  8
1
 62
7
  6
CONTINUOUS
 10
134.845857
 20
382.100968
 40
0.600000
 50
0.000000
 51
90.000000
  0
LINE
  8
1
 62
7
  6
CONTINUOUS
 10
130.445857
 20
382.700968
 11
134.845857
 21
382.700968
  0
LINE
  8
1
 62
7
  6
CONTINUOUS
 10
129.845857
 20
359.900968
 11
129.845857
 21
382.100968
  0
ARC
  8
1
 62
7
  6
CONTINUOUS
 10
130.445857
 20
382.100968
 40
0.600000
 50
90.000000
 51
180.000000
  0
LINE
  8
1
 62
7
  6
CONTINUOUS
 10
130.945857
 20
377.635282
 11
130.945857
 21
362.700968
  0
ARC
  8
1
 62
7
  6
CONTINUOUS
 10
131.445857
 20
362.700968
 40
0.500000
 50
180.000000
 51
-90.000000
  0
LINE
  8
1
 62
7
  6
CONTINUOUS
 10
131.445857
 20
362.200968
 11
133.845857
 21
362.200968
  0
LINE
  8
1
 62
7
  6
CONTINUOUS
 10
134.345857
 20
362.700968
 11
134.345857
 21
377.635282
  0
ARC
  8
1
 62
7
  6
CONTINUOUS
 10
133.845857
 20
362.700968
 40
0.500000
 50
-90.000000
 51
0.000000
  0
ARC
  8
1
 62
7
  6
CONTINUOUS
 10
131.445857
 20
362.700968
 40
0.400000
 50
180.000000
 51
-90.000000
  0
LINE
  8
1
 62
7
  6
CONTINUOUS
 10
131.445857
 20
362.300968
 11
133.845857
 21
362.300968
  0
ARC
  8
1
 62
7
  6
CONTINUOUS
 10
133.845857
 20
362.700968
 40
0.400000
 50
-90.000000
 51
0.000000
  0
LINE
  8
1
 62
7
  6
CONTINUOUS
 10
131.045857
 20
363.604104
 11
131.045857
 21
362.700968
  0
ARC
  8
1
 62
7
  6
CONTINUOUS
 10
131.445857
 20
363.604104
 40
0.400000
 50
90.000000
 51
180.000000
  0
LINE
  8
1
 62
7
  6
CONTINUOUS
 10
133.845857
 20
364.004104
 11
131.445857
 21
364.004104
  0
LINE
  8
1
 62
7
  6
CONTINUOUS
 10
134.245857
 20
362.700968
 11
134.245857
 21
363.604104
  0
ARC
  8
1
 62
7
  6
CONTINUOUS
 10
133.845857
 20
363.604104
 40
0.400000
 50
0.000000
 51
90.000000
  0
LINE
  8
1
 62
7
  6
CONTINUOUS
 10
132.756151
 20
366.256064
 11
132.756151
 21
365.143754
  0
LINE
  8
1
 62
7
  6
CONTINUOUS
 10
132.756151
 20
365.143754
 11
132.521981
 21
365.143754
  0
LINE
  8
1
 62
7
  6
CONTINUOUS
 10
132.521981
 20
365.143754
 11
132.521981
 21
366.256064
  0
LINE
  8
1
 62
7
  6
CONTINUOUS
 10
132.521981
 20
366.256064
 11
132.756151
 21
366.256064
  0
LINE
  8
1
 62
7
  6
CONTINUOUS
 10
132.845857
 20
363.452536
 11
132.845857
 21
363.652536
  0
LINE
  8
1
 62
7
  6
CONTINUOUS
 10
132.845857
 20
363.652536
 11
133.645857
 21
363.152536
  0
LINE
  8
1
 62
7
  6
CONTINUOUS
 10
133.645857
 20
363.152536
 11
132.845857
 21
362.652536
  0
LINE
  8
1
 62
7
  6
CONTINUOUS
 10
132.845857
 20
362.652536
 11
132.845857
 21
362.852536
  0
LINE
  8
1
 62
7
  6
CONTINUOUS
 10
132.845857
 20
362.852536
 11
131.645857
 21
362.852536
  0
LINE
  8
1
 62
7
  6
CONTINUOUS
 10
131.645857
 20
362.852536
 11
131.645857
 21
363.452536
  0
LINE
  8
1
 62
7
  6
CONTINUOUS
 10
131.645857
 20
363.452536
 11
132.845857
 21
363.452536
  0
CIRCLE
  8
1
 62
7
  6
CONTINUOUS
 10
132.645857
 20
377.635282
 40
1.360160
  0
ARC
  8
1
 62
7
  6
CONTINUOUS
 10
131.545857
 20
362.800968
 40
0.800000
 50
180.000000
 51
-90.000000
  0
LINE
  8
1
 62
7
  6
CONTINUOUS
 10
133.745857
 20
362.000968
 11
131.545857
 21
362.000968
  0
ARC
  8
1
 62
7
  6
CONTINUOUS
 10
133.745857
 20
362.800968
 40
0.800000
 50
-90.000000
 51
0.000000
  0
LINE
  8
1
 62
7
  6
CONTINUOUS
 10
130.745857
 20
362.800968
 11
130.745857
 21
378.300968
  0
ARC
  8
1
 62
7
  6
CONTINUOUS
 10
132.645857
 20
378.300968
 40
1.900000
 50
90.000000
 51
180.000000
  0
LINE
  8
1
 62
7
  6
CONTINUOUS
 10
134.545857
 20
378.300968
 11
134.545857
 21
362.800968
  0
ARC
  8
1
 62
7
  6
CONTINUOUS
 10
132.645857
 20
378.300968
 40
1.900000
 50
0.000000
 51
90.000000
  0
LINE
  8
1
 62
7
  6
CONTINUOUS
 10
130.345857
 20
382.200968
 11
130.021850
 21
382.525490
  0
LINE
  8
1
 62
7
  6
CONTINUOUS
 10
134.945857
 20
382.200968
 11
135.285443
 21
382.509336
  0
LINE
  8
1
 62
7
  6
CONTINUOUS
 10
134.945857
 20
359.800968
 11
135.300988
 21
359.510000
  0
LINE
  8
1
 62
7
  6
CONTINUOUS
 10
130.345857
 20
359.800968
 11
130.016100
 21
359.482269
  0
CIRCLE
  8
1
 62
7
  6
CONTINUOUS
 10
132.645857
 20
365.735035
 40
0.750020
  0
LINE
  8
1
 62
7
  6
DASHDOT
 10
487.645856
 20
463.100970
 11
487.645856
 21
455.100969
  0
LINE
  8
1
 62
7
  6
DASHDOT
 10
371.949613
 20
459.100968
 11
379.645856
 21
459.100968
  0
LINE
  8
1
 62
7
  6
DASHDOT
 10
375.645856
 20
463.100970
 11
375.645856
 21
455.100969
  0
LINE
  8
1
 62
7
  6
DASHDOT
 10
487.645856
 20
287.100970
 11
487.645856
 21
279.100969
  0
LINE
  8
1
 62
7
  6
DASHDOT
 10
375.645856
 20
287.100970
 11
375.645856
 21
279.100969
  0
LINE
  8
1
 62
7
  6
DASHDOT
 10
371.949613
 20
283.100968
 11
378.899468
 21
283.100968
  0
TEXT
  8
15
 62
96
  6
DIVIDE
 10
714.201719
 20
535.649077
 40
6.001769
 41
0.833333
  1
０５０４１７５
  7
KANJI
 50
0.000000
 51
0.000000
  0
TEXT
  8
15
 62
96
  6
CONTINUOUS
 10
709.779597
 20
121.540798
 40
6.001769
 41
0.566667
  1
G13006-06-05Z08
  7
KANJI
 50
0.000000
 51
0.000000
  0
TEXT
  8
15
 62
96
  6
CONTINUOUS
 10
654.568681
 20
56.526660
 40
7.000000
 41
0.500000
  1
G13006-06-07905
  7
KANJI
 50
0.000000
 51
0.000000
  0
TEXT
  8
15
 62
96
  6
CONTINUOUS
 10
663.585754
 20
105.022118
 40
10.002949
 41
0.900000
  1
ＳＵＢ－Ｌ４０ＮＡ
  7
KANJI
 50
0.000000
 51
0.000000
  0
TEXT
  8
15
 62
96
  6
CONTINUOUS
 10
386.140130
 20
37.869057
 40
6.000000
 41
0.944444
  1
＊　記載されている会社名、製品名は、登録商標または商標です。
  7
KANJI
 50
0.000000
 51
0.000000
  0
TEXT
  8
15
 62
96
  6
DIVIDE
 10
720.203488
 20
502.639345
 40
6.001769
 41
0.595238
  1
SPCC ｔ1.6
  7
KANJI
 50
0.000000
 51
0.000000
  0
TEXT
  8
15
 62
96
  6
DIVIDE
 10
685.689302
 20
480.569715
 40
6.001769
 41
0.756881
  1
マンセル　2.5Ｙ 9/1　近似色　半艶
  7
KANJI
 50
0.000000
 51
0.000000
  0
LINE
  8
1
 62
7
  6
DASHDOT
 10
362.113513
 20
371.100968
 11
498.874984
 21
371.100968
  0
LINE
  8
1
 62
7
  6
CONTINUOUS
 10
119.645856
 20
491.100968
 11
239.645856
 21
491.100968
  0
LINE
  8
1
 62
7
  6
CONTINUOUS
 10
119.645856
 20
493.900968
 11
119.645856
 21
473.900968
  0
LINE
  8
1
 62
7
  6
CONTINUOUS
 10
239.645856
 20
493.900968
 11
239.645856
 21
473.900968
  0
LINE
  8
1
 62
7
  6
CONTINUOUS
 10
119.645856
 20
491.100968
 11
124.282300
 21
492.343300
  0
LINE
  8
1
 62
7
  6
CONTINUOUS
 10
119.645856
 20
491.100968
 11
124.282300
 21
489.858637
  0
LINE
  8
1
 62
7
  6
CONTINUOUS
 10
239.645856
 20
491.100968
 11
235.009412
 21
489.858637
  0
LINE
  8
1
 62
7
  6
CONTINUOUS
 10
239.645856
 20
491.100968
 11
235.009412
 21
492.343300
  0
TEXT
  8
1
 62
7
  6
CONTINUOUS
 10
174.745857
 20
492.100968
 40
6.000000
 41
0.566667
  1
600
  7
KANJI
 50
0.000000
 51
0.000000
  0
LINE
  8
1
 62
7
  6
CONTINUOUS
 10
259.645856
 20
271.100968
 11
259.645856
 21
471.100968
  0
LINE
  8
1
 62
7
  6
CONTINUOUS
 10
262.445856
 20
271.100968
 11
242.445856
 21
271.100968
  0
LINE
  8
1
 62
7
  6
CONTINUOUS
 10
262.445856
 20
471.100968
 11
242.445856
 21
471.100968
  0
LINE
  8
1
 62
7
  6
CONTINUOUS
 10
259.645856
 20
271.100968
 11
258.403524
 21
275.737412
  0
LINE
  8
1
 62
7
  6
CONTINUOUS
 10
259.645856
 20
271.100968
 11
260.888187
 21
275.737412
  0
LINE
  8
1
 62
7
  6
CONTINUOUS
 10
259.645856
 20
471.100968
 11
260.888187
 21
466.464524
  0
LINE
  8
1
 62
7
  6
CONTINUOUS
 10
259.645856
 20
471.100968
 11
258.403524
 21
466.464524
  0
TEXT
  8
1
 62
7
  6
CONTINUOUS
 10
258.645856
 20
364.500967
 40
6.000000
 41
0.566667
  1
1000
  7
KANJI
 50
90.000000
 51
0.000000
  0
LINE
  8
1
 62
7
  6
CONTINUOUS
 10
289.645856
 20
491.100968
 11
321.645856
 21
491.100968
  0
LINE
  8
1
 62
7
  6
CONTINUOUS
 10
289.645856
 20
493.900968
 11
289.645856
 21
473.900968
  0
LINE
  8
1
 62
7
  6
CONTINUOUS
 10
321.645856
 20
493.900968
 11
321.645856
 21
473.900968
  0
LINE
  8
1
 62
7
  6
CONTINUOUS
 10
289.645856
 20
491.100968
 11
294.282300
 21
492.343300
  0
LINE
  8
1
 62
7
  6
CONTINUOUS
 10
289.645856
 20
491.100968
 11
294.282300
 21
489.858637
  0
LINE
  8
1
 62
7
  6
CONTINUOUS
 10
321.645856
 20
491.100968
 11
317.009412
 21
489.858637
  0
LINE
  8
1
 62
7
  6
CONTINUOUS
 10
321.645856
 20
491.100968
 11
317.009412
 21
492.343300
  0
TEXT
  8
1
 62
7
  6
CONTINUOUS
 10
300.745855
 20
492.100968
 40
6.000000
 41
0.566667
  1
160
  7
KANJI
 50
0.000000
 51
0.000000
  0
LINE
  8
1
 62
7
  6
CONTINUOUS
 10
406.645856
 20
251.100968
 11
456.645856
 21
251.100968
  0
LINE
  8
1
 62
7
  6
CONTINUOUS
 10
406.645856
 20
249.500968
 11
406.645856
 21
274.500968
  0
LINE
  8
1
 62
7
  6
CONTINUOUS
 10
456.645856
 20
249.500968
 11
456.645856
 21
274.500968
  0
LINE
  8
1
 62
7
  6
CONTINUOUS
 10
406.645856
 20
251.100968
 11
411.282300
 21
252.343300
  0
LINE
  8
1
 62
7
  6
CONTINUOUS
 10
406.645856
 20
251.100968
 11
411.282300
 21
249.858637
  0
LINE
  8
1
 62
7
  6
CONTINUOUS
 10
456.645856
 20
251.100968
 11
452.009412
 21
249.858637
  0
LINE
  8
1
 62
7
  6
CONTINUOUS
 10
456.645856
 20
251.100968
 11
452.009412
 21
252.343300
  0
TEXT
  8
1
 62
7
  6
CONTINUOUS
 10
426.745856
 20
252.100968
 40
6.000000
 41
0.566667
  1
250
  7
KANJI
 50
0.000000
 51
0.000000
  0
LINE
  8
1
 62
7
  6
CONTINUOUS
 10
470.997420
 20
294.100968
 11
470.997420
 21
266.100968
  0
LINE
  8
1
 62
7
  6
CONTINUOUS
 10
472.997420
 20
284.100968
 11
458.645856
 21
284.100968
  0
LINE
  8
1
 62
7
  6
CONTINUOUS
 10
472.997420
 20
276.100968
 11
458.645856
 21
276.100968
  0
LINE
  8
1
 62
7
  6
CONTINUOUS
 10
470.997420
 20
284.100968
 11
469.755088
 21
288.737412
  0
LINE
  8
1
 62
7
  6
CONTINUOUS
 10
470.997420
 20
284.100968
 11
472.239751
 21
288.737412
  0
LINE
  8
1
 62
7
  6
CONTINUOUS
 10
470.997420
 20
276.100968
 11
472.239751
 21
271.464524
  0
LINE
  8
1
 62
7
  6
CONTINUOUS
 10
470.997420
 20
276.100968
 11
469.755088
 21
271.464524
  0
TEXT
  8
1
 62
7
  6
CONTINUOUS
 10
469.997420
 20
286.833579
 40
6.000000
 41
0.566667
  1
40
  7
KANJI
 50
90.000000
 51
0.000000
  0
LINE
  8
1
 62
7
  6
CONTINUOUS
 10
391.037044
 20
294.100968
 11
391.037044
 21
261.100968
  0
LINE
  8
1
 62
7
  6
CONTINUOUS
 10
389.037044
 20
280.100968
 11
401.591851
 21
280.100968
  0
LINE
  8
1
 62
7
  6
CONTINUOUS
 10
389.037044
 20
271.100968
 11
429.645856
 21
271.100968
  0
LINE
  8
1
 62
7
  6
CONTINUOUS
 10
391.037044
 20
280.100968
 11
389.794713
 21
284.737412
  0
LINE
  8
1
 62
7
  6
CONTINUOUS
 10
391.037044
 20
280.100968
 11
392.279376
 21
284.737412
  0
LINE
  8
1
 62
7
  6
CONTINUOUS
 10
391.037044
 20
271.100968
 11
392.279376
 21
266.464524
  0
LINE
  8
1
 62
7
  6
CONTINUOUS
 10
391.037044
 20
271.100968
 11
389.794713
 21
266.464524
  0
TEXT
  8
1
 62
7
  6
CONTINUOUS
 10
390.037044
 20
285.309007
 40
6.000000
 41
0.566667
  1
45
  7
KANJI
 50
90.000000
 51
0.000000
  0
LINE
  8
1
 62
7
  6
CONTINUOUS
 10
375.645856
 20
491.100968
 11
487.645856
 21
491.100968
  0
LINE
  8
1
 62
7
  6
CONTINUOUS
 10
375.645856
 20
493.100968
 11
375.645856
 21
465.100970
  0
LINE
  8
1
 62
7
  6
CONTINUOUS
 10
487.645856
 20
493.100968
 11
487.645856
 21
465.100970
  0
LINE
  8
1
 62
7
  6
CONTINUOUS
 10
375.645856
 20
491.100968
 11
380.282300
 21
492.343300
  0
LINE
  8
1
 62
7
  6
CONTINUOUS
 10
375.645856
 20
491.100968
 11
380.282300
 21
489.858637
  0
LINE
  8
1
 62
7
  6
CONTINUOUS
 10
487.645856
 20
491.100968
 11
483.009412
 21
489.858637
  0
LINE
  8
1
 62
7
  6
CONTINUOUS
 10
487.645856
 20
491.100968
 11
483.009412
 21
492.343300
  0
TEXT
  8
1
 62
7
  6
CONTINUOUS
 10
426.745856
 20
492.100968
 40
6.000000
 41
0.566667
  1
560
  7
KANJI
 50
0.000000
 51
0.000000
  0
LINE
  8
1
 62
7
  6
DASHDOT
 10
483.949613
 20
459.100968
 11
491.045856
 21
459.100968
  0
LINE
  8
1
 62
7
  6
DASHDOT
 10
483.949613
 20
283.100968
 11
491.045856
 21
283.100968
  0
LINE
  8
1
 62
7
  6
CONTINUOUS
 10
511.645856
 20
283.100968
 11
511.645856
 21
459.100968
  0
LINE
  8
1
 62
7
  6
CONTINUOUS
 10
513.645856
 20
283.100968
 11
494.045856
 21
283.100968
  0
LINE
  8
1
 62
7
  6
CONTINUOUS
 10
513.645856
 20
459.100968
 11
494.045856
 21
459.100968
  0
LINE
  8
1
 62
7
  6
CONTINUOUS
 10
511.645856
 20
283.100968
 11
510.403525
 21
287.737412
  0
LINE
  8
1
 62
7
  6
CONTINUOUS
 10
511.645856
 20
283.100968
 11
512.888188
 21
287.737412
  0
LINE
  8
1
 62
7
  6
CONTINUOUS
 10
511.645856
 20
459.100968
 11
512.888188
 21
454.464524
  0
LINE
  8
1
 62
7
  6
CONTINUOUS
 10
511.645856
 20
459.100968
 11
510.403525
 21
454.464524
  0
TEXT
  8
1
 62
7
  6
CONTINUOUS
 10
510.645856
 20
366.200968
 40
6.000000
 41
0.566667
  1
880
  7
KANJI
 50
90.000000
 51
0.000000
  0
TEXT
  8
15
 62
96
  6
DIVIDE
 10
690.194641
 20
513.642589
 40
6.001769
 41
0.707547
  1
SA16-610Ｃ（日東工業（株）製）
  7
KANJI
 50
0.000000
 51
0.000000
  0
LINE
  8
15
 62
96
  6
CONTINUOUS
 10
620.173997
 20
423.115900
 11
800.227081
 21
423.115900
  0
LINE
  8
15
 62
96
  6
CONTINUOUS
 10
620.173997
 20
434.119144
 11
800.227081
 21
434.119144
  0
LINE
  8
15
 62
96
  6
CONTINUOUS
 10
620.173997
 20
456.125632
 11
800.227081
 21
456.125632
  0
LINE
  8
15
 62
96
  6
CONTINUOUS
 10
620.173997
 20
445.122388
 11
800.227081
 21
445.122388
  0
TEXT
  8
15
 62
96
  6
DIVIDE
 10
636.178716
 20
447.623125
 40
6.001769
 41
0.833333
  1
重　量
  7
KANJI
 50
0.000000
 51
0.000000
  0
TEXT
  8
15
 62
96
  6
DIVIDE
 10
633.177831
 20
436.619881
 40
6.001769
 41
0.833333
  1
入力電源
  7
KANJI
 50
0.000000
 51
0.000000
  0
TEXT
  8
15
 62
96
  6
DIVIDE
 10
633.177831
 20
425.616637
 40
6.001769
 41
0.833333
  1
消費電力
  7
KANJI
 50
0.000000
 51
0.000000
  0
TEXT
  8
15
 62
96
  6
CONTINUOUS
 10
636.178716
 20
414.613393
 40
6.001769
 41
0.833333
  1
ブザー
  7
KANJI
 50
0.000000
 51
0.000000
  0
TEXT
  8
15
 62
96
  6
DIVIDE
 10
705.195053
 20
436.556739
 40
6.001769
 41
0.833333
  1
電気錠制御盤から供給
  7
KANJI
 50
0.000000
 51
0.000000
  0
TEXT
  8
15
 62
96
  6
DIVIDE
 10
726.269546
 20
425.616683
 40
6.001769
 41
0.833333
  1
－－－
  7
KANJI
 50
0.000000
 51
0.000000
  0
TEXT
  8
15
 62
96
  6
CONTINUOUS
 10
699.197295
 20
414.613393
 40
6.001769
 41
0.750000
  1
電子ブザー　ピー音　80dB
  7
KANJI
 50
0.000000
 51
0.000000
  0
LINE
  8
15
 62
96
  6
CONTINUOUS
 10
620.173997
 20
412.112656
 11
800.227081
 21
412.112656
  0
LINE
  8
15
 62
96
  6
CONTINUOUS
 10
620.191780
 20
379.102924
 11
800.230938
 21
379.102924
  0
LINE
  8
15
 62
96
  6
CONTINUOUS
 10
620.173997
 20
390.106168
 11
800.227600
 21
390.106168
  0
LINE
  8
15
 62
96
  6
CONTINUOUS
 10
620.191780
 20
368.099680
 11
800.230938
 21
368.099680
  0
TEXT
  8
15
 62
96
  6
CONTINUOUS
 10
627.399994
 20
392.606905
 40
6.001769
 41
0.833333
  1
開扉表示入力
  7
KANJI
 50
0.000000
 51
0.000000
  0
TEXT
  8
15
 62
96
  6
CONTINUOUS
 10
626.151622
 20
381.644898
 40
6.000000
 41
0.944444
  1
解錠表示入力
  7
KANJI
 50
0.000000
 51
0.000000
  0
TEXT
  8
15
 62
96
  6
CONTINUOUS
 10
626.151622
 20
370.641654
 40
6.000000
 41
0.944444
  1
警報表示入力
  7
KANJI
 50
0.000000
 51
0.000000
  0
TEXT
  8
15
 62
96
  6
CONTINUOUS
 10
786.668762
 20
392.840171
 40
6.001769
 41
0.625000
  1
40点
  7
KANJI
 50
0.000000
 51
0.000000
  0
TEXT
  8
15
 62
96
  6
DIVIDE
 10
726.313146
 20
447.697339
 40
6.001769
 41
0.576923
  1
約42kg
  7
KANJI
 50
0.000000
 51
0.000000
  0
TEXT
  8
15
 62
96
  6
CONTINUOUS
 10
652.140081
 20
403.598093
 40
6.001769
 41
0.755814
  1
外部入力　：接点容量　DC24Ｖ　0.1Ａ以下
  7
KANJI
 50
0.000000
 51
0.000000
  0
TEXT
  8
15
 62
96
  6
CONTINUOUS
 10
786.668762
 20
381.836927
 40
6.001769
 41
0.625000
  1
40点
  7
KANJI
 50
0.000000
 51
0.000000
  0
TEXT
  8
15
 62
96
  6
CONTINUOUS
 10
786.668762
 20
370.833683
 40
6.001769
 41
0.625000
  1
40点
  7
KANJI
 50
0.000000
 51
0.000000
  0
TEXT
  8
15
 62
96
  6
CONTINUOUS
 10
694.419753
 20
392.606905
 40
6.001769
 41
0.670732
  1
有電圧DC24Ｖ　25mA以下
  7
KANJI
 50
0.000000
 51
0.000000
  0
TEXT
  8
15
 62
96
  6
CONTINUOUS
 10
694.419753
 20
381.603661
 40
6.001769
 41
0.670732
  1
有電圧DC24Ｖ　25mA以下
  7
KANJI
 50
0.000000
 51
0.000000
  0
TEXT
  8
15
 62
96
  6
CONTINUOUS
 10
694.419753
 20
370.600417
 40
6.001769
 41
0.670732
  1
有電圧DC24Ｖ　25mA以下
  7
KANJI
 50
0.000000
 51
0.000000
  0
LINE
  8
15
 62
96
  6
CONTINUOUS
 10
620.191780
 20
324.086704
 11
800.230938
 21
324.086704
  0
LINE
  8
15
 62
96
  6
CONTINUOUS
 10
620.191780
 20
313.083460
 11
800.230938
 21
313.083460
  0
LINE
  8
15
 62
96
  6
CONTINUOUS
 10
620.191780
 20
302.080216
 11
800.230938
 21
302.080216
  0
LINE
  8
15
 62
96
  6
CONTINUOUS
 10
620.191780
 20
291.076972
 11
800.230938
 21
291.076972
  0
TEXT
  8
15
 62
96
  6
CONTINUOUS
 10
621.351622
 20
315.625434
 40
6.000000
 41
0.888889
  1
非常解錠表示入力
  7
KANJI
 50
0.000000
 51
0.000000
  0
TEXT
  8
15
 62
96
  6
CONTINUOUS
 10
621.351622
 20
304.622189
 40
6.000000
 41
0.888889
  1
一斉解錠表示入力
  7
KANJI
 50
0.000000
 51
0.000000
  0
TEXT
  8
15
 62
96
  6
CONTINUOUS
 10
624.351622
 20
293.618945
 40
6.000000
 41
0.888889
  1
警報ブザー入力
  7
KANJI
 50
0.000000
 51
0.000000
  0
TEXT
  8
15
 62
96
  6
CONTINUOUS
 10
786.668762
 20
315.817463
 40
6.001769
 41
0.833333
  1
１点
  7
KANJI
 50
0.000000
 51
0.000000
  0
TEXT
  8
15
 62
96
  6
CONTINUOUS
 10
786.668762
 20
304.814219
 40
6.001769
 41
0.833333
  1
１点
  7
KANJI
 50
0.000000
 51
0.000000
  0
TEXT
  8
15
 62
96
  6
CONTINUOUS
 10
786.668762
 20
293.810975
 40
6.001769
 41
0.833333
  1
１点
  7
KANJI
 50
0.000000
 51
0.000000
  0
TEXT
  8
15
 62
96
  6
CONTINUOUS
 10
623.891748
 20
238.561489
 40
6.001769
 41
0.833333
  1
一回解錠釦出力
  7
KANJI
 50
0.000000
 51
0.000000
  0
TEXT
  8
15
 62
96
  6
CONTINUOUS
 10
623.891748
 20
227.558245
 40
6.001769
 41
0.833333
  1
リセット釦出力
  7
KANJI
 50
0.000000
 51
0.000000
  0
TEXT
  8
15
 62
96
  6
CONTINUOUS
 10
623.891748
 20
216.555001
 40
6.001769
 41
0.833333
  1
一斉解錠釦出力
  7
KANJI
 50
0.000000
 51
0.000000
  0
TEXT
  8
15
 62
96
  6
CONTINUOUS
 10
623.891748
 20
249.564733
 40
6.001769
 41
0.833333
  1
連続解錠釦出力
  7
KANJI
 50
0.000000
 51
0.000000
  0
LINE
  8
15
 62
96
  6
CONTINUOUS
 10
620.173997
 20
258.067240
 11
800.213156
 21
258.067240
  0
LINE
  8
15
 62
96
  6
CONTINUOUS
 10
620.173997
 20
247.063996
 11
800.213156
 21
247.063996
  0
LINE
  8
15
 62
96
  6
CONTINUOUS
 10
620.173997
 20
236.060752
 11
800.213156
 21
236.060752
  0
LINE
  8
15
 62
96
  6
CONTINUOUS
 10
620.173997
 20
225.057508
 11
800.213156
 21
225.057508
  0
LINE
  8
15
 62
96
  6
CONTINUOUS
 10
620.173997
 20
214.054264
 11
800.213156
 21
214.054264
  0
LINE
  8
15
 62
96
  6
CONTINUOUS
 10
620.173997
 20
269.070484
 11
800.213156
 21
269.070484
  0
TEXT
  8
15
 62
96
  6
CONTINUOUS
 10
651.916668
 20
260.555921
 40
6.001769
 41
0.755814
  1
外部出力　：接点容量　DC24Ｖ　0.3Ａ以下
  7
KANJI
 50
0.000000
 51
0.000000
  0
TEXT
  8
15
 62
96
  6
CONTINUOUS
 10
700.421522
 20
249.564733
 40
6.001769
 41
0.833333
  1
無電圧ａ接点　瞬時
  7
KANJI
 50
0.000000
 51
0.000000
  0
TEXT
  8
15
 62
96
  6
CONTINUOUS
 10
700.421522
 20
238.561489
 40
6.001769
 41
0.833333
  1
無電圧ａ接点　瞬時
  7
KANJI
 50
0.000000
 51
0.000000
  0
TEXT
  8
15
 62
96
  6
CONTINUOUS
 10
700.421522
 20
227.558245
 40
6.001769
 41
0.833333
  1
無電圧ａ接点　瞬時
  7
KANJI
 50
0.000000
 51
0.000000
  0
TEXT
  8
15
 62
96
  6
CONTINUOUS
 10
700.421522
 20
216.555001
 40
6.001769
 41
0.833333
  1
無電圧ａ接点　瞬時
  7
KANJI
 50
0.000000
 51
0.000000
  0
TEXT
  8
15
 62
96
  6
CONTINUOUS
 10
786.668762
 20
249.797999
 40
6.001769
 41
0.625000
  1
40点
  7
KANJI
 50
0.000000
 51
0.000000
  0
TEXT
  8
15
 62
96
  6
CONTINUOUS
 10
786.668762
 20
238.794755
 40
6.001769
 41
0.625000
  1
40点
  7
KANJI
 50
0.000000
 51
0.000000
  0
TEXT
  8
15
 62
96
  6
CONTINUOUS
 10
786.668762
 20
227.791511
 40
6.001769
 41
0.833333
  1
１点
  7
KANJI
 50
0.000000
 51
0.000000
  0
TEXT
  8
15
 62
96
  6
CONTINUOUS
 10
786.668762
 20
216.788267
 40
6.001769
 41
0.833333
  1
１点
  7
KANJI
 50
0.000000
 51
0.000000
  0
LINE
  8
15
 62
96
  6
CONTINUOUS
 10
620.173997
 20
192.047776
 11
800.213156
 21
192.047776
  0
TEXT
  8
15
 62
96
  6
CONTINUOUS
 10
683.200058
 20
183.545269
 40
6.001769
 41
0.833333
  1
※換気モード仕様時
  7
KANJI
 50
0.000000
 51
0.000000
  0
TEXT
  8
15
 62
96
  6
CONTINUOUS
 10
621.401622
 20
277.614079
 40
5.000000
 41
0.805085
  1
換気/全開表示入力※
  7
KANJI
 50
0.000000
 51
0.000000
  0
TEXT
  8
15
 62
96
  6
CONTINUOUS
 10
700.421522
 20
200.050135
 40
6.001769
 41
0.833333
  1
無電圧ａ接点　瞬時
  7
KANJI
 50
0.000000
 51
0.000000
  0
TEXT
  8
15
 62
96
  6
CONTINUOUS
 10
621.147941
 20
200.551020
 40
5.000000
 41
0.805085
  1
換気/施解錠釦出力※
  7
KANJI
 50
0.000000
 51
0.000000
  0
LINE
  8
15
 62
96
  6
CONTINUOUS
 10
669.905314
 20
258.067240
 11
669.905314
 21
192.047776
  0
LINE
  8
15
 62
96
  6
CONTINUOUS
 10
783.938934
 20
258.067240
 11
783.938934
 21
192.047776
  0
TEXT
  8
15
 62
96
  6
CONTINUOUS
 10
786.668762
 20
281.807731
 40
6.001769
 41
0.833333
  1
最大
  7
KANJI
 50
0.000000
 51
0.000000
  0
TEXT
  8
15
 62
96
  6
CONTINUOUS
 10
786.668762
 20
204.785023
 40
6.001769
 41
0.833333
  1
最大
  7
KANJI
 50
0.000000
 51
0.000000
  0
TEXT
  8
15
 62
96
  6
CONTINUOUS
 10
786.668762
 20
272.804487
 40
6.001769
 41
0.625000
  1
40点
  7
KANJI
 50
0.000000
 51
0.000000
  0
TEXT
  8
15
 62
96
  6
CONTINUOUS
 10
786.668762
 20
195.781779
 40
6.001769
 41
0.625000
  1
40点
  7
KANJI
 50
0.000000
 51
0.000000
  0
TEXT
  8
15
 62
96
  6
CONTINUOUS
 10
694.419753
 20
315.584197
 40
6.001769
 41
0.670732
  1
有電圧DC24Ｖ　25mA以下
  7
KANJI
 50
0.000000
 51
0.000000
  0
TEXT
  8
15
 62
96
  6
CONTINUOUS
 10
694.419753
 20
304.580953
 40
6.001769
 41
0.670732
  1
有電圧DC24Ｖ　25mA以下
  7
KANJI
 50
0.000000
 51
0.000000
  0
TEXT
  8
15
 62
96
  6
CONTINUOUS
 10
694.419753
 20
293.577709
 40
6.001769
 41
0.670732
  1
有電圧DC24Ｖ　25mA以下
  7
KANJI
 50
0.000000
 51
0.000000
  0
TEXT
  8
15
 62
96
  6
CONTINUOUS
 10
694.419753
 20
277.072843
 40
6.001769
 41
0.670732
  1
有電圧DC24Ｖ　25mA以下
  7
KANJI
 50
0.000000
 51
0.000000
  0
LINE
  8
15
 62
96
  6
CONTINUOUS
 10
645.055769
 20
368.099680
 11
645.055769
 21
324.086704
  0
LINE
  8
15
 62
96
  6
CONTINUOUS
 10
645.055769
 20
346.093192
 11
800.245382
 21
346.093192
  0
TEXT
  8
15
 62
96
  6
CONTINUOUS
 10
786.683206
 20
354.328817
 40
6.001769
 41
0.833333
  1
１点
  7
KANJI
 50
0.000000
 51
0.000000
  0
TEXT
  8
15
 62
96
  6
CONTINUOUS
 10
786.683206
 20
332.322329
 40
6.001769
 41
0.833333
  1
１点
  7
KANJI
 50
0.000000
 51
0.000000
  0
TEXT
  8
15
 62
96
  6
CONTINUOUS
 10
709.438620
 20
354.095551
 40
6.001769
 41
0.681818
  1
有電圧DC24Ｖ
  7
KANJI
 50
0.000000
 51
0.000000
  0
TEXT
  8
15
 62
96
  6
CONTINUOUS
 10
709.438620
 20
332.089063
 40
6.001769
 41
0.681818
  1
有電圧DC24Ｖ
  7
KANJI
 50
0.000000
 51
0.000000
  0
TEXT
  8
15
 62
96
  6
CONTINUOUS
 10
648.080541
 20
349.594814
 40
6.000000
 41
0.944444
  1
電池時
  7
KANJI
 50
0.000000
 51
0.000000
  0
TEXT
  8
15
 62
96
  6
CONTINUOUS
 10
648.080541
 20
336.591570
 40
6.000000
 41
0.944444
  1
鉛電池
  7
KANJI
 50
0.000000
 51
0.000000
  0
TEXT
  8
15
 62
96
  6
CONTINUOUS
 10
648.080541
 20
327.588326
 40
6.000000
 41
0.944444
  1
動作時
  7
KANJI
 50
0.000000
 51
0.000000
  0
TEXT
  8
15
 62
96
  6
CONTINUOUS
 10
648.080541
 20
358.598058
 40
6.000000
 41
0.944444
  1
商　用
  7
KANJI
 50
0.000000
 51
0.000000
  0
TEXT
  8
15
 62
96
  6
CONTINUOUS
 10
623.230996
 20
338.591570
 40
6.000000
 41
0.944444
  1
入　力
  7
KANJI
 50
0.000000
 51
0.000000
  0
TEXT
  8
15
 62
96
  6
CONTINUOUS
 10
621.430996
 20
347.594814
 40
6.000000
 41
0.777778
  1
電源表示
  7
KANJI
 50
0.000000
 51
0.000000
  0
LINE
  8
15
 62
96
  6
CONTINUOUS
 10
620.173997
 20
181.044532
 11
800.213156
 21
181.044532
  0
LINE
  8
15
 62
96
  6
CONTINUOUS
 10
669.905314
 20
522.145096
 11
669.905314
 21
412.112656
  0
LINE
  8
15
 62
96
  6
CONTINUOUS
 10
645.041325
 20
489.135364
 11
645.041325
 21
456.122388
  0
LINE
  8
15
 62
96
  6
CONTINUOUS
 10
645.041325
 20
478.135364
 11
800.227600
 21
478.135364
  0
TEXT
  8
15
 62
96
  6
DIVIDE
 10
648.405314
 20
458.635364
 40
6.000000
 41
0.833333
  1
文　字
  7
KANJI
 50
0.000000
 51
0.000000
  0
TEXT
  8
15
 62
96
  6
DIVIDE
 10
711.196822
 20
469.569715
 40
6.001769
 41
0.740741
  1
マンセル　Ｎ-3.0
  7
KANJI
 50
0.000000
 51
0.000000
  0
TEXT
  8
15
 62
96
  6
DIVIDE
 10
711.196822
 20
458.569715
 40
6.001769
 41
0.740741
  1
マンセル　Ｎ-8.5
  7
KANJI
 50
0.000000
 51
0.000000
  0
LINE
  8
15
 62
96
  6
CONTINUOUS
 10
645.041325
 20
467.135364
 11
800.227600
 21
467.135364
  0
TEXT
  8
15
 62
96
  6
DIVIDE
 10
648.466097
 20
480.635364
 40
6.000000
 41
0.833333
  1
本　体
  7
KANJI
 50
0.000000
 51
0.000000
  0
TEXT
  8
15
 62
96
  6
DIVIDE
 10
648.466097
 20
469.628876
 40
6.000000
 41
0.833333
  1
パネル
  7
KANJI
 50
0.000000
 51
0.000000
  0
TEXT
  8
15
 62
96
  6
DIVIDE
 10
623.616552
 20
469.628876
 40
6.000000
 41
0.833333
  1
彩　色
  7
KANJI
 50
0.000000
 51
0.000000
  0
LINE
  8
15
 62
96
  6
CONTINUOUS
 10
783.938934
 20
401.109412
 11
783.938934
 21
269.070484
  0
LINE
  8
15
 62
96
  6
CONTINUOUS
 10
669.905314
 20
401.109412
 11
669.905314
 21
269.070484
  0
LINE
  8
15
 62
96
  6
CONTINUOUS
 10
620.173997
 20
401.109412
 11
800.227600
 21
401.109412
  0
LINE
  8
2
 62
134
  6
CONTINUOUS
 10
306.120592
 20
74.598788
 11
418.814309
 21
74.598788
  0
TEXT
  8
2
 62
134
  6
CONTINUOUS
 10
308.144741
 20
65.598788
 40
8.000000
 41
0.916667
  1
繰返しモード用パネル使用時
  7
KANJI
 50
0.000000
 51
0.000000
  0
LINE
  8
2
 62
134
  6
CONTINUOUS
 10
561.296111
 20
121.359352
 11
565.334362
 21
134.359585
  0
LINE
  8
2
 62
134
  6
CONTINUOUS
 10
565.334362
 20
134.359585
 11
616.334362
 21
134.359585
  0
TEXT
  8
2
 62
134
  6
CONTINUOUS
 10
565.334362
 20
134.359585
 40
6.000000
 41
0.833333
  1
一斉解錠釦 （赤）
  7
KANJI
 50
0.000000
 51
0.000000
  0
LINE
  8
2
 62
134
  6
CONTINUOUS
 10
561.296111
 20
121.359352
 11
561.485087
 21
126.155630
  0
LINE
  8
2
 62
134
  6
CONTINUOUS
 10
561.296111
 20
121.359352
 11
563.857908
 21
125.418563
  0
LINE
  8
2
 62
134
  6
CONTINUOUS
 10
518.808452
 20
117.930671
 11
531.011845
 21
157.216728
  0
LINE
  8
2
 62
134
  6
CONTINUOUS
 10
531.011845
 20
157.216728
 11
594.011845
 21
157.216728
  0
TEXT
  8
2
 62
134
  6
CONTINUOUS
 10
531.011845
 20
157.216728
 40
6.000000
 41
0.833333
  1
一斉解錠表示灯 （赤）
  7
KANJI
 50
0.000000
 51
0.000000
  0
LINE
  8
2
 62
134
  6
CONTINUOUS
 10
518.808452
 20
117.930671
 11
518.997428
 21
122.726949
  0
LINE
  8
2
 62
134
  6
CONTINUOUS
 10
518.808452
 20
117.930671
 11
521.370249
 21
121.989882
  0
LINE
  8
2
 62
134
  6
CONTINUOUS
 10
457.949362
 20
120.930767
 11
465.670791
 21
145.788156
  0
LINE
  8
2
 62
134
  6
CONTINUOUS
 10
465.670791
 20
145.788156
 11
489.670791
 21
145.788156
  0
TEXT
  8
2
 62
134
  6
CONTINUOUS
 10
465.670791
 20
145.788156
 40
6.000000
 41
0.833333
  1
ブザー孔
  7
KANJI
 50
0.000000
 51
0.000000
  0
LINE
  8
2
 62
134
  6
CONTINUOUS
 10
457.949362
 20
120.930767
 11
458.138338
 21
125.727045
  0
LINE
  8
2
 62
134
  6
CONTINUOUS
 10
457.949362
 20
120.930767
 11
460.511159
 21
124.989978
  0
LINE
  8
2
 62
134
  6
CONTINUOUS
 10
484.521641
 20
117.930671
 11
503.825128
 21
180.073871
  0
LINE
  8
2
 62
134
  6
CONTINUOUS
 10
503.825128
 20
180.073871
 11
563.825128
 21
180.073871
  0
TEXT
  8
2
 62
134
  6
CONTINUOUS
 10
503.825128
 20
180.073871
 40
6.000000
 41
0.833333
  1
電源表示灯（緑／赤）
  7
KANJI
 50
0.000000
 51
0.000000
  0
LINE
  8
2
 62
134
  6
CONTINUOUS
 10
484.521641
 20
117.930671
 11
484.710617
 21
122.726949
  0
LINE
  8
2
 62
134
  6
CONTINUOUS
 10
484.521641
 20
117.930671
 11
487.083438
 21
121.989882
  0
LINE
  8
2
 62
134
  6
CONTINUOUS
 10
501.665046
 20
117.930671
 11
517.418487
 21
168.645299
  0
LINE
  8
2
 62
134
  6
CONTINUOUS
 10
517.418487
 20
168.645299
 11
577.418487
 21
168.645299
  0
TEXT
  8
2
 62
134
  6
CONTINUOUS
 10
517.418487
 20
168.645299
 40
6.000000
 41
0.833333
  1
非常解錠表示灯（赤）
  7
KANJI
 50
0.000000
 51
0.000000
  0
LINE
  8
2
 62
134
  6
CONTINUOUS
 10
501.665046
 20
117.930671
 11
501.854022
 21
122.726949
  0
LINE
  8
2
 62
134
  6
CONTINUOUS
 10
501.665046
 20
117.930671
 11
504.226844
 21
121.989882
  0
LINE
  8
2
 62
134
  6
CONTINUOUS
 10
540.019580
 20
121.359352
 11
547.607879
 21
145.788156
  0
LINE
  8
2
 62
134
  6
CONTINUOUS
 10
547.607879
 20
145.788156
 11
598.607879
 21
145.788156
  0
TEXT
  8
2
 62
134
  6
CONTINUOUS
 10
547.607879
 20
145.788156
 40
6.000000
 41
0.833333
  1
リセット釦 （白）
  7
KANJI
 50
0.000000
 51
0.000000
  0
LINE
  8
2
 62
134
  6
CONTINUOUS
 10
540.019580
 20
121.359352
 11
540.208556
 21
126.155630
  0
LINE
  8
2
 62
134
  6
CONTINUOUS
 10
540.019580
 20
121.359352
 11
542.581378
 21
125.418563
  0
LINE
  8
2
 62
134
  6
CONTINUOUS
 10
447.583565
 20
74.598788
 11
572.169584
 21
74.598788
  0
TEXT
  8
2
 62
134
  6
CONTINUOUS
 10
449.579675
 20
75.598788
 40
8.000000
 41
0.916667
  1
一斉操作用パネル詳細（４：１）
  7
KANJI
 50
0.000000
 51
0.000000
  0
TEXT
  8
2
 62
134
  6
CONTINUOUS
 10
494.016559
 20
122.110973
 40
1.928633
 41
3.333333
  1
非　常
  7
KANJI
 50
-90.000000
 51
0.000000
  0
TEXT
  8
2
 62
134
  6
CONTINUOUS
 10
550.655843
 20
121.975296
 40
1.928633
 41
3.333333
  1
一　斉
  7
KANJI
 50
-90.000000
 51
0.000000
  0
TEXT
  8
2
 62
134
  6
CONTINUOUS
 10
529.094496
 20
123.965252
 40
1.928633
 41
3.333333
  1
リセット
  7
KANJI
 50
-90.000000
 51
0.000000
  0
TEXT
  8
2
 62
134
  6
CONTINUOUS
 10
511.093920
 20
122.148549
 40
1.928633
 41
3.333333
  1
一　斉
  7
KANJI
 50
-90.000000
 51
0.000000
  0
TEXT
  8
2
 62
134
  6
CONTINUOUS
 10
476.799655
 20
121.925716
 40
1.928633
 41
3.333333
  1
電　源
  7
KANJI
 50
-90.000000
 51
0.000000
  0
LINE
  8
2
 62
134
  6
CONTINUOUS
 10
443.806052
 20
102.930191
 11
580.953298
 21
102.930191
  0
LINE
  8
2
 62
134
  6
CONTINUOUS
 10
580.953298
 20
102.930191
 11
580.953298
 21
128.645299
  0
LINE
  8
2
 62
134
  6
CONTINUOUS
 10
580.953298
 20
128.645299
 11
443.806052
 21
128.645299
  0
LINE
  8
2
 62
134
  6
CONTINUOUS
 10
443.806052
 20
128.645299
 11
443.806052
 21
102.930191
  0
CIRCLE
  8
2
 62
134
  6
CONTINUOUS
 10
484.521641
 20
115.787745
 40
2.142926
  0
CIRCLE
  8
2
 62
134
  6
CONTINUOUS
 10
501.665046
 20
115.787745
 40
2.142926
  0
CIRCLE
  8
2
 62
134
  6
CONTINUOUS
 10
518.808452
 20
115.787745
 40
2.142926
  0
LINE
  8
2
 62
134
  6
CONTINUOUS
 10
534.666102
 20
110.216138
 11
545.809316
 21
110.216138
  0
LINE
  8
2
 62
134
  6
CONTINUOUS
 10
545.809316
 20
110.216138
 11
545.809316
 21
121.359352
  0
LINE
  8
2
 62
134
  6
CONTINUOUS
 10
545.809316
 20
121.359352
 11
534.666102
 21
121.359352
  0
LINE
  8
2
 62
134
  6
CONTINUOUS
 10
534.666102
 20
121.359352
 11
534.666102
 21
110.216138
  0
LINE
  8
2
 62
134
  6
CONTINUOUS
 10
556.095360
 20
110.216138
 11
567.238573
 21
110.216138
  0
LINE
  8
2
 62
134
  6
CONTINUOUS
 10
567.238573
 20
110.216138
 11
567.238573
 21
121.359352
  0
LINE
  8
2
 62
134
  6
CONTINUOUS
 10
567.238573
 20
121.359352
 11
556.095360
 21
121.359352
  0
LINE
  8
2
 62
134
  6
CONTINUOUS
 10
556.095360
 20
121.359352
 11
556.095360
 21
110.216138
  0
LINE
  8
2
 62
134
  6
CONTINUOUS
 10
471.235501
 20
103.787361
 11
471.235501
 21
127.788129
  0
LINE
  8
2
 62
134
  6
CONTINUOUS
 10
447.151574
 20
104.571978
 11
447.151574
 21
126.963288
  0
LINE
  8
2
 62
134
  6
CONTINUOUS
 10
447.151574
 20
104.571978
 11
468.663990
 21
104.571978
  0
LINE
  8
2
 62
134
  6
CONTINUOUS
 10
468.663990
 20
104.571978
 11
468.663990
 21
126.963288
  0
LINE
  8
2
 62
134
  6
CONTINUOUS
 10
447.151574
 20
126.963288
 11
468.663990
 21
126.963288
  0
LINE
  8
2
 62
134
  6
CONTINUOUS
 10
471.235501
 20
103.787361
 11
578.381787
 21
103.787361
  0
LINE
  8
2
 62
134
  6
CONTINUOUS
 10
578.381787
 20
103.787361
 11
578.381787
 21
127.788129
  0
LINE
  8
2
 62
134
  6
CONTINUOUS
 10
578.381787
 20
127.788129
 11
471.235501
 21
127.788129
  0
CIRCLE
  8
2
 62
134
  6
CONTINUOUS
 10
457.949362
 20
115.787745
 40
0.857170
  0
CIRCLE
  8
2
 62
134
  6
CONTINUOUS
 10
457.949362
 20
120.073596
 40
0.857170
  0
CIRCLE
  8
2
 62
134
  6
CONTINUOUS
 10
453.663510
 20
115.787745
 40
0.857170
  0
CIRCLE
  8
2
 62
134
  6
CONTINUOUS
 10
457.949362
 20
111.501894
 40
0.857170
  0
CIRCLE
  8
2
 62
134
  6
CONTINUOUS
 10
462.235213
 20
115.787745
 40
0.857170
  0
LINE
  8
2
 62
134
  6
CONTINUOUS
 10
445.419753
 20
102.930191
 11
445.419753
 21
128.645299
  0
LINE
  8
2
 62
134
  6
CONTINUOUS
 10
579.238957
 20
102.930191
 11
579.238957
 21
128.645299
  0
LINE
  8
2
 62
134
  6
CONTINUOUS
 10
364.687667
 20
165.075036
 11
384.587558
 21
171.062814
  0
LINE
  8
2
 62
134
  6
CONTINUOUS
 10
384.587558
 20
171.062814
 11
432.587558
 21
171.062814
  0
TEXT
  8
2
 62
134
  6
CONTINUOUS
 10
384.587558
 20
171.062814
 40
6.000000
 41
0.833333
  1
警報表示灯（赤）
  7
KANJI
 50
0.000000
 51
0.000000
  0
LINE
  8
2
 62
134
  6
CONTINUOUS
 10
364.687667
 20
165.075036
 11
368.769522
 21
167.600598
  0
LINE
  8
2
 62
134
  6
CONTINUOUS
 10
364.687667
 20
165.075036
 11
369.485438
 21
165.221310
  0
LINE
  8
2
 62
134
  6
CONTINUOUS
 10
364.687667
 20
182.218442
 11
384.139566
 21
190.801356
  0
LINE
  8
2
 62
134
  6
CONTINUOUS
 10
384.139566
 20
190.801356
 11
432.139566
 21
190.801356
  0
TEXT
  8
2
 62
134
  6
CONTINUOUS
 10
384.139566
 20
190.801356
 40
6.000000
 41
0.833333
  1
解錠表示灯（緑）
  7
KANJI
 50
0.000000
 51
0.000000
  0
LINE
  8
2
 62
134
  6
CONTINUOUS
 10
364.687667
 20
182.218442
 11
368.428023
 21
185.226721
  0
LINE
  8
2
 62
134
  6
CONTINUOUS
 10
364.687667
 20
182.218442
 11
369.431049
 21
182.953510
  0
LINE
  8
2
 62
134
  6
CONTINUOUS
 10
364.687667
 20
199.361848
 11
384.139566
 21
211.236928
  0
LINE
  8
2
 62
134
  6
CONTINUOUS
 10
384.139566
 20
211.236928
 11
432.139566
 21
211.236928
  0
TEXT
  8
2
 62
134
  6
CONTINUOUS
 10
384.139566
 20
211.236928
 40
6.000000
 41
0.833333
  1
開扉表示灯（赤）
  7
KANJI
 50
0.000000
 51
0.000000
  0
LINE
  8
2
 62
134
  6
CONTINUOUS
 10
364.687667
 20
199.361848
 11
367.997634
 21
202.838070
  0
LINE
  8
2
 62
134
  6
CONTINUOUS
 10
364.687667
 20
199.361848
 11
369.292294
 21
200.717361
  0
LINE
  8
2
 62
134
  6
CONTINUOUS
 10
368.116348
 20
122.038392
 11
384.587558
 21
127.538583
  0
LINE
  8
2
 62
134
  6
CONTINUOUS
 10
384.587558
 20
127.538583
 11
424.497680
 21
127.538583
  0
TEXT
  8
2
 62
134
  6
CONTINUOUS
 10
385.497680
 20
127.538583
 40
6.000000
 41
0.833333
  1
施錠釦 （灰）
  7
KANJI
 50
0.000000
 51
0.000000
  0
LINE
  8
2
 62
134
  6
CONTINUOUS
 10
368.116348
 20
122.038392
 11
372.120591
 21
124.685285
  0
LINE
  8
2
 62
134
  6
CONTINUOUS
 10
368.116348
 20
122.038392
 11
372.907571
 21
122.328547
  0
LINE
  8
2
 62
134
  6
CONTINUOUS
 10
368.116348
 20
144.544956
 11
384.587558
 21
150.321300
  0
LINE
  8
2
 62
134
  6
CONTINUOUS
 10
384.587558
 20
150.321300
 11
424.497680
 21
150.321300
  0
TEXT
  8
2
 62
134
  6
CONTINUOUS
 10
385.497680
 20
150.321300
 40
6.000000
 41
0.833333
  1
解錠釦 （灰）
  7
KANJI
 50
0.000000
 51
0.000000
  0
LINE
  8
2
 62
134
  6
CONTINUOUS
 10
368.116348
 20
144.544956
 11
372.080419
 21
147.251641
  0
LINE
  8
2
 62
134
  6
CONTINUOUS
 10
368.116348
 20
144.544956
 11
372.902677
 21
144.906978
  0
TEXT
  8
2
 62
134
  6
CONTINUOUS
 10
312.344741
 20
75.598788
 40
8.000000
 41
0.916667
  1
選択パネル詳細（４：１）
  7
KANJI
 50
0.000000
 51
0.000000
  0
TEXT
  8
2
 62
134
  6
CONTINUOUS
 10
356.347312
 20
129.715888
 40
3.857266
 41
0.833333
  1
施　錠
  7
KANJI
 50
0.000000
 51
0.000000
  0
TEXT
  8
2
 62
134
  6
CONTINUOUS
 10
356.890350
 20
151.247607
 40
3.857266
 41
0.833333
  1
解　錠
  7
KANJI
 50
0.000000
 51
0.000000
  0
TEXT
  8
2
 62
134
  6
CONTINUOUS
 10
356.758842
 20
186.735708
 40
3.857266
 41
0.833333
  1
解　錠
  7
KANJI
 50
0.000000
 51
0.000000
  0
TEXT
  8
2
 62
134
  6
CONTINUOUS
 10
357.031736
 20
169.360888
 40
3.857266
 41
0.833333
  1
警　報
  7
KANJI
 50
0.000000
 51
0.000000
  0
TEXT
  8
2
 62
134
  6
CONTINUOUS
 10
356.909598
 20
203.647699
 40
3.857266
 41
0.833333
  1
開　扉
  7
KANJI
 50
0.000000
 51
0.000000
  0
LINE
  8
2
 62
134
  6
CONTINUOUS
 10
374.545125
 20
105.501702
 11
374.545125
 21
212.647987
  0
LINE
  8
2
 62
134
  6
CONTINUOUS
 10
350.544357
 20
105.501702
 11
374.545125
 21
105.501702
  0
LINE
  8
2
 62
134
  6
CONTINUOUS
 10
350.544357
 20
212.647987
 11
350.544357
 21
105.501702
  0
LINE
  8
2
 62
134
  6
CONTINUOUS
 10
373.720284
 20
236.731914
 11
373.720284
 21
215.219498
  0
LINE
  8
2
 62
134
  6
CONTINUOUS
 10
351.328974
 20
215.219498
 11
373.720284
 21
215.219498
  0
LINE
  8
2
 62
134
  6
CONTINUOUS
 10
351.328974
 20
236.731914
 11
351.328974
 21
215.219498
  0
LINE
  8
2
 62
134
  6
CONTINUOUS
 10
351.328974
 20
236.731914
 11
373.720284
 21
236.731914
  0
LINE
  8
2
 62
134
  6
CONTINUOUS
 10
360.372963
 20
214.362328
 11
359.189547
 21
215.218751
  0
LINE
  8
2
 62
134
  6
CONTINUOUS
 10
365.106628
 20
214.362328
 11
366.182461
 21
215.219498
  0
LINE
  8
2
 62
134
  6
CONTINUOUS
 10
360.372963
 20
214.362328
 11
365.106628
 21
214.362328
  0
LINE
  8
2
 62
134
  6
CONTINUOUS
 10
350.544357
 20
212.647987
 11
374.545125
 21
212.647987
  0
LINE
  8
2
 62
134
  6
CONTINUOUS
 10
356.973135
 20
127.788129
 11
356.973135
 21
116.644915
  0
LINE
  8
2
 62
134
  6
CONTINUOUS
 10
356.973135
 20
116.644915
 11
368.116348
 21
116.644915
  0
LINE
  8
2
 62
134
  6
CONTINUOUS
 10
368.116348
 20
116.644915
 11
368.116348
 21
127.788129
  0
LINE
  8
2
 62
134
  6
CONTINUOUS
 10
368.116348
 20
127.788129
 11
356.973135
 21
127.788129
  0
LINE
  8
2
 62
134
  6
CONTINUOUS
 10
356.973135
 20
149.217386
 11
356.973135
 21
138.074172
  0
LINE
  8
2
 62
134
  6
CONTINUOUS
 10
356.973135
 20
138.074172
 11
368.116348
 21
138.074172
  0
LINE
  8
2
 62
134
  6
CONTINUOUS
 10
368.116348
 20
138.074172
 11
368.116348
 21
149.217386
  0
LINE
  8
2
 62
134
  6
CONTINUOUS
 10
368.116348
 20
149.217386
 11
356.973135
 21
149.217386
  0
CIRCLE
  8
2
 62
134
  6
CONTINUOUS
 10
362.544741
 20
165.075036
 40
2.142926
  0
CIRCLE
  8
2
 62
134
  6
CONTINUOUS
 10
362.544741
 20
182.218442
 40
2.142926
  0
CIRCLE
  8
2
 62
134
  6
CONTINUOUS
 10
362.544741
 20
199.361848
 40
2.142926
  0
LINE
  8
2
 62
134
  6
CONTINUOUS
 10
349.687187
 20
240.077436
 11
349.687187
 21
102.930191
  0
LINE
  8
2
 62
134
  6
CONTINUOUS
 10
349.687187
 20
102.930191
 11
375.402296
 21
102.930191
  0
LINE
  8
2
 62
134
  6
CONTINUOUS
 10
375.402296
 20
102.930191
 11
375.402296
 21
240.077436
  0
LINE
  8
2
 62
134
  6
CONTINUOUS
 10
375.402296
 20
240.077436
 11
349.687187
 21
240.077436
  0
LINE
  8
2
 62
134
  6
CONTINUOUS
 10
349.687187
 20
238.463735
 11
375.402296
 21
238.463735
  0
LINE
  8
2
 62
134
  6
CONTINUOUS
 10
349.687187
 20
104.644531
 11
375.402296
 21
104.644531
  0
LINE
  8
2
 62
134
  6
CONTINUOUS
 10
230.571264
 20
165.075036
 11
250.471155
 21
171.062814
  0
LINE
  8
2
 62
134
  6
CONTINUOUS
 10
250.471155
 20
171.062814
 11
298.471155
 21
171.062814
  0
TEXT
  8
2
 62
134
  6
CONTINUOUS
 10
250.471155
 20
171.062814
 40
6.000000
 41
0.833333
  1
解錠表示灯（赤）
  7
KANJI
 50
0.000000
 51
0.000000
  0
LINE
  8
2
 62
134
  6
CONTINUOUS
 10
230.571264
 20
165.075036
 11
234.653119
 21
167.600598
  0
LINE
  8
2
 62
134
  6
CONTINUOUS
 10
230.571264
 20
165.075036
 11
235.369035
 21
165.221310
  0
LINE
  8
2
 62
134
  6
CONTINUOUS
 10
230.571264
 20
182.218442
 11
250.023163
 21
190.801356
  0
LINE
  8
2
 62
134
  6
CONTINUOUS
 10
250.023163
 20
190.801356
 11
313.023163
 21
190.801356
  0
TEXT
  8
2
 62
134
  6
CONTINUOUS
 10
250.023163
 20
190.801356
 40
6.000000
 41
0.807692
  1
換気/全開表示灯（緑）
  7
KANJI
 50
0.000000
 51
0.000000
  0
LINE
  8
2
 62
134
  6
CONTINUOUS
 10
230.571264
 20
182.218442
 11
234.311619
 21
185.226721
  0
LINE
  8
2
 62
134
  6
CONTINUOUS
 10
230.571264
 20
182.218442
 11
235.314646
 21
182.953510
  0
LINE
  8
2
 62
134
  6
CONTINUOUS
 10
230.571264
 20
199.361848
 11
250.023163
 21
211.236928
  0
LINE
  8
2
 62
134
  6
CONTINUOUS
 10
250.023163
 20
211.236928
 11
298.023163
 21
211.236928
  0
TEXT
  8
2
 62
134
  6
CONTINUOUS
 10
250.023163
 20
211.236928
 40
6.000000
 41
0.833333
  1
開扉表示灯（赤）
  7
KANJI
 50
0.000000
 51
0.000000
  0
LINE
  8
2
 62
134
  6
CONTINUOUS
 10
230.571264
 20
199.361848
 11
233.881231
 21
202.838070
  0
LINE
  8
2
 62
134
  6
CONTINUOUS
 10
230.571264
 20
199.361848
 11
235.175890
 21
200.717361
  0
LINE
  8
2
 62
134
  6
CONTINUOUS
 10
233.999945
 20
144.544956
 11
250.471155
 21
150.321300
  0
LINE
  8
2
 62
134
  6
CONTINUOUS
 10
250.471155
 20
150.321300
 11
295.783206
 21
150.321300
  0
TEXT
  8
2
 62
134
  6
CONTINUOUS
 10
250.783206
 20
150.321300
 40
6.000000
 41
0.833333
  1
施解錠釦 （灰）
  7
KANJI
 50
0.000000
 51
0.000000
  0
LINE
  8
2
 62
134
  6
CONTINUOUS
 10
233.999945
 20
144.544956
 11
237.964016
 21
147.251641
  0
LINE
  8
2
 62
134
  6
CONTINUOUS
 10
233.999945
 20
144.544956
 11
238.786273
 21
144.906978
  0
LINE
  8
2
 62
134
  6
CONTINUOUS
 10
233.999945
 20
122.038392
 11
250.471155
 21
127.538583
  0
LINE
  8
2
 62
134
  6
CONTINUOUS
 10
250.471155
 20
127.538583
 11
290.224438
 21
127.538583
  0
TEXT
  8
2
 62
134
  6
CONTINUOUS
 10
251.224438
 20
127.538583
 40
6.000000
 41
0.833333
  1
換気釦 （灰）
  7
KANJI
 50
0.000000
 51
0.000000
  0
LINE
  8
2
 62
134
  6
CONTINUOUS
 10
233.999945
 20
122.038392
 11
238.004188
 21
124.685285
  0
LINE
  8
2
 62
134
  6
CONTINUOUS
 10
233.999945
 20
122.038392
 11
238.791167
 21
122.328547
  0
TEXT
  8
2
 62
134
  6
CONTINUOUS
 10
178.228338
 20
75.598788
 40
8.000000
 41
0.916667
  1
選択パネル詳細（４：１）
  7
KANJI
 50
0.000000
 51
0.000000
  0
TEXT
  8
2
 62
134
  6
CONTINUOUS
 10
178.228338
 20
65.598788
 40
8.000000
 41
0.916667
  1
換気モード用パネル使用時
  7
KANJI
 50
0.000000
 51
0.000000
  0
TEXT
  8
2
 62
134
  6
CONTINUOUS
 10
219.749489
 20
186.735708
 40
3.857266
 41
0.775862
  1
換気/全開
  7
KANJI
 50
0.000000
 51
0.000000
  0
TEXT
  8
2
 62
134
  6
CONTINUOUS
 10
222.915333
 20
169.360888
 40
3.857266
 41
0.833333
  1
解　錠
  7
KANJI
 50
0.000000
 51
0.000000
  0
TEXT
  8
2
 62
134
  6
CONTINUOUS
 10
222.773947
 20
151.247607
 40
3.857266
 41
0.833333
  1
施解錠
  7
KANJI
 50
0.000000
 51
0.000000
  0
TEXT
  8
2
 62
134
  6
CONTINUOUS
 10
222.230909
 20
129.715888
 40
3.857266
 41
0.833333
  1
換　気
  7
KANJI
 50
0.000000
 51
0.000000
  0
TEXT
  8
2
 62
134
  6
CONTINUOUS
 10
222.793194
 20
203.647699
 40
3.857266
 41
0.833333
  1
開　扉
  7
KANJI
 50
0.000000
 51
0.000000
  0
LINE
  8
2
 62
134
  6
CONTINUOUS
 10
240.428722
 20
105.501702
 11
240.428722
 21
212.647987
  0
LINE
  8
2
 62
134
  6
CONTINUOUS
 10
216.427954
 20
105.501702
 11
240.428722
 21
105.501702
  0
LINE
  8
2
 62
134
  6
CONTINUOUS
 10
216.427954
 20
212.647987
 11
216.427954
 21
105.501702
  0
LINE
  8
2
 62
134
  6
CONTINUOUS
 10
239.603881
 20
236.731914
 11
239.603881
 21
215.219498
  0
LINE
  8
2
 62
134
  6
CONTINUOUS
 10
217.212571
 20
215.219498
 11
239.603881
 21
215.219498
  0
LINE
  8
2
 62
134
  6
CONTINUOUS
 10
217.212571
 20
236.731914
 11
217.212571
 21
215.219498
  0
LINE
  8
2
 62
134
  6
CONTINUOUS
 10
217.212571
 20
236.731914
 11
239.603881
 21
236.731914
  0
LINE
  8
2
 62
134
  6
CONTINUOUS
 10
226.256560
 20
214.362328
 11
225.073144
 21
215.218751
  0
LINE
  8
2
 62
134
  6
CONTINUOUS
 10
230.990225
 20
214.362328
 11
232.066058
 21
215.219498
  0
LINE
  8
2
 62
134
  6
CONTINUOUS
 10
226.256560
 20
214.362328
 11
230.990225
 21
214.362328
  0
LINE
  8
2
 62
134
  6
CONTINUOUS
 10
216.427954
 20
212.647987
 11
240.428722
 21
212.647987
  0
LINE
  8
2
 62
134
  6
CONTINUOUS
 10
222.856731
 20
127.788129
 11
222.856731
 21
116.644915
  0
LINE
  8
2
 62
134
  6
CONTINUOUS
 10
222.856731
 20
116.644915
 11
233.999945
 21
116.644915
  0
LINE
  8
2
 62
134
  6
CONTINUOUS
 10
233.999945
 20
116.644915
 11
233.999945
 21
127.788129
  0
LINE
  8
2
 62
134
  6
CONTINUOUS
 10
233.999945
 20
127.788129
 11
222.856731
 21
127.788129
  0
LINE
  8
2
 62
134
  6
CONTINUOUS
 10
222.856731
 20
149.217386
 11
222.856731
 21
138.074172
  0
LINE
  8
2
 62
134
  6
CONTINUOUS
 10
222.856731
 20
138.074172
 11
233.999945
 21
138.074172
  0
LINE
  8
2
 62
134
  6
CONTINUOUS
 10
233.999945
 20
138.074172
 11
233.999945
 21
149.217386
  0
LINE
  8
2
 62
134
  6
CONTINUOUS
 10
233.999945
 20
149.217386
 11
222.856731
 21
149.217386
  0
CIRCLE
  8
2
 62
134
  6
CONTINUOUS
 10
228.428338
 20
165.075036
 40
2.142926
  0
CIRCLE
  8
2
 62
134
  6
CONTINUOUS
 10
228.428338
 20
182.218442
 40
2.142926
  0
CIRCLE
  8
2
 62
134
  6
CONTINUOUS
 10
228.428338
 20
199.361848
 40
2.142926
  0
LINE
  8
2
 62
134
  6
CONTINUOUS
 10
215.570784
 20
240.077436
 11
215.570784
 21
102.930191
  0
LINE
  8
2
 62
134
  6
CONTINUOUS
 10
215.570784
 20
102.930191
 11
241.285892
 21
102.930191
  0
LINE
  8
2
 62
134
  6
CONTINUOUS
 10
241.285892
 20
102.930191
 11
241.285892
 21
240.077436
  0
LINE
  8
2
 62
134
  6
CONTINUOUS
 10
241.285892
 20
240.077436
 11
215.570784
 21
240.077436
  0
LINE
  8
2
 62
134
  6
CONTINUOUS
 10
215.570784
 20
238.463735
 11
241.285892
 21
238.463735
  0
LINE
  8
2
 62
134
  6
CONTINUOUS
 10
215.570784
 20
104.644531
 11
241.285892
 21
104.644531
  0
LINE
  8
2
 62
134
  6
CONTINUOUS
 10
176.234347
 20
74.598788
 11
280.622330
 21
74.598788
  0
LINE
  8
2
 62
134
  6
CONTINUOUS
 10
98.480825
 20
165.075036
 11
118.380716
 21
171.062814
  0
LINE
  8
2
 62
134
  6
CONTINUOUS
 10
118.380716
 20
171.062814
 11
166.380716
 21
171.062814
  0
TEXT
  8
2
 62
134
  6
CONTINUOUS
 10
118.380716
 20
171.062814
 40
6.000000
 41
0.833333
  1
警報表示灯（赤）
  7
KANJI
 50
0.000000
 51
0.000000
  0
LINE
  8
2
 62
134
  6
CONTINUOUS
 10
98.480825
 20
165.075036
 11
102.562680
 21
167.600598
  0
LINE
  8
2
 62
134
  6
CONTINUOUS
 10
98.480825
 20
165.075036
 11
103.278596
 21
165.221310
  0
LINE
  8
2
 62
134
  6
CONTINUOUS
 10
98.480825
 20
182.218442
 11
117.932724
 21
190.801356
  0
LINE
  8
2
 62
134
  6
CONTINUOUS
 10
117.932724
 20
190.801356
 11
165.932724
 21
190.801356
  0
TEXT
  8
2
 62
134
  6
CONTINUOUS
 10
117.932724
 20
190.801356
 40
6.000000
 41
0.833333
  1
解錠表示灯（緑）
  7
KANJI
 50
0.000000
 51
0.000000
  0
LINE
  8
2
 62
134
  6
CONTINUOUS
 10
98.480825
 20
182.218442
 11
102.221181
 21
185.226721
  0
LINE
  8
2
 62
134
  6
CONTINUOUS
 10
98.480825
 20
182.218442
 11
103.224207
 21
182.953510
  0
LINE
  8
2
 62
134
  6
CONTINUOUS
 10
98.480825
 20
199.361848
 11
117.932724
 21
211.236928
  0
LINE
  8
2
 62
134
  6
CONTINUOUS
 10
117.932724
 20
211.236928
 11
165.932724
 21
211.236928
  0
TEXT
  8
2
 62
134
  6
CONTINUOUS
 10
117.932724
 20
211.236928
 40
6.000000
 41
0.833333
  1
開扉表示灯（赤）
  7
KANJI
 50
0.000000
 51
0.000000
  0
LINE
  8
2
 62
134
  6
CONTINUOUS
 10
98.480825
 20
199.361848
 11
101.790792
 21
202.838070
  0
LINE
  8
2
 62
134
  6
CONTINUOUS
 10
98.480825
 20
199.361848
 11
103.085451
 21
200.717361
  0
LINE
  8
2
 62
134
  6
CONTINUOUS
 10
101.909506
 20
122.038392
 11
118.380716
 21
127.538583
  0
LINE
  8
2
 62
134
  6
CONTINUOUS
 10
118.380716
 20
127.538583
 11
169.198846
 21
127.538583
  0
TEXT
  8
2
 62
134
  6
CONTINUOUS
 10
118.198846
 20
127.538583
 40
6.000000
 41
0.833333
  1
一回解錠釦 （灰）
  7
KANJI
 50
0.000000
 51
0.000000
  0
LINE
  8
2
 62
134
  6
CONTINUOUS
 10
101.909506
 20
122.038392
 11
105.913749
 21
124.685285
  0
LINE
  8
2
 62
134
  6
CONTINUOUS
 10
101.909506
 20
122.038392
 11
106.700728
 21
122.328547
  0
LINE
  8
2
 62
134
  6
CONTINUOUS
 10
101.909506
 20
144.544956
 11
118.380716
 21
150.321300
  0
LINE
  8
2
 62
134
  6
CONTINUOUS
 10
118.380716
 20
150.321300
 11
169.893061
 21
150.321300
  0
TEXT
  8
2
 62
134
  6
CONTINUOUS
 10
118.893061
 20
150.321300
 40
6.000000
 41
0.833333
  1
連続解錠釦 （灰）
  7
KANJI
 50
0.000000
 51
0.000000
  0
LINE
  8
2
 62
134
  6
CONTINUOUS
 10
101.909506
 20
144.544956
 11
105.873577
 21
147.251641
  0
LINE
  8
2
 62
134
  6
CONTINUOUS
 10
101.909506
 20
144.544956
 11
106.695835
 21
144.906978
  0
LINE
  8
2
 62
134
  6
CONTINUOUS
 10
37.348307
 20
74.598788
 11
156.045074
 21
74.598788
  0
TEXT
  8
2
 62
134
  6
CONTINUOUS
 10
46.137899
 20
75.598788
 40
8.000000
 41
0.916667
  1
選択パネル詳細（４：１）
  7
KANJI
 50
0.000000
 51
0.000000
  0
TEXT
  8
2
 62
134
  6
CONTINUOUS
 10
37.737899
 20
65.598788
 40
8.000000
 41
0.916667
  1
自動施錠モード用パネル使用時
  7
KANJI
 50
0.000000
 51
0.000000
  0
TEXT
  8
2
 62
134
  6
CONTINUOUS
 10
90.683508
 20
151.247607
 40
3.857266
 41
0.833333
  1
連　続
  7
KANJI
 50
0.000000
 51
0.000000
  0
TEXT
  8
2
 62
134
  6
CONTINUOUS
 10
90.824894
 20
169.360888
 40
3.857266
 41
0.833333
  1
警　報
  7
KANJI
 50
0.000000
 51
0.000000
  0
TEXT
  8
2
 62
134
  6
CONTINUOUS
 10
90.824894
 20
186.735708
 40
3.857266
 41
0.833333
  1
解　錠
  7
KANJI
 50
0.000000
 51
0.000000
  0
TEXT
  8
2
 62
134
  6
CONTINUOUS
 10
90.702756
 20
203.647699
 40
3.857266
 41
0.833333
  1
開　扉
  7
KANJI
 50
0.000000
 51
0.000000
  0
TEXT
  8
2
 62
134
  6
CONTINUOUS
 10
90.140470
 20
129.715888
 40
3.857266
 41
0.833333
  1
一　回
  7
KANJI
 50
0.000000
 51
0.000000
  0
LINE
  8
2
 62
134
  6
CONTINUOUS
 10
108.338283
 20
105.501702
 11
108.338283
 21
212.647987
  0
LINE
  8
2
 62
134
  6
CONTINUOUS
 10
84.337515
 20
105.501702
 11
108.338283
 21
105.501702
  0
LINE
  8
2
 62
134
  6
CONTINUOUS
 10
84.337515
 20
212.647987
 11
84.337515
 21
105.501702
  0
LINE
  8
2
 62
134
  6
CONTINUOUS
 10
107.513442
 20
236.731914
 11
107.513442
 21
215.219498
  0
LINE
  8
2
 62
134
  6
CONTINUOUS
 10
85.122132
 20
215.219498
 11
107.513442
 21
215.219498
  0
LINE
  8
2
 62
134
  6
CONTINUOUS
 10
85.122132
 20
236.731914
 11
85.122132
 21
215.219498
  0
LINE
  8
2
 62
134
  6
CONTINUOUS
 10
85.122132
 20
236.731914
 11
107.513442
 21
236.731914
  0
LINE
  8
2
 62
134
  6
CONTINUOUS
 10
94.166121
 20
214.362328
 11
92.982705
 21
215.218751
  0
LINE
  8
2
 62
134
  6
CONTINUOUS
 10
98.899786
 20
214.362328
 11
99.975619
 21
215.219498
  0
LINE
  8
2
 62
134
  6
CONTINUOUS
 10
94.166121
 20
214.362328
 11
98.899786
 21
214.362328
  0
LINE
  8
2
 62
134
  6
CONTINUOUS
 10
84.337515
 20
212.647987
 11
108.338283
 21
212.647987
  0
LINE
  8
2
 62
134
  6
CONTINUOUS
 10
90.766293
 20
127.788129
 11
90.766293
 21
116.644915
  0
LINE
  8
2
 62
134
  6
CONTINUOUS
 10
90.766293
 20
116.644915
 11
101.909506
 21
116.644915
  0
LINE
  8
2
 62
134
  6
CONTINUOUS
 10
101.909506
 20
116.644915
 11
101.909506
 21
127.788129
  0
LINE
  8
2
 62
134
  6
CONTINUOUS
 10
101.909506
 20
127.788129
 11
90.766293
 21
127.788129
  0
LINE
  8
2
 62
134
  6
CONTINUOUS
 10
90.766293
 20
149.217386
 11
90.766293
 21
138.074172
  0
LINE
  8
2
 62
134
  6
CONTINUOUS
 10
90.766293
 20
138.074172
 11
101.909506
 21
138.074172
  0
LINE
  8
2
 62
134
  6
CONTINUOUS
 10
101.909506
 20
138.074172
 11
101.909506
 21
149.217386
  0
LINE
  8
2
 62
134
  6
CONTINUOUS
 10
101.909506
 20
149.217386
 11
90.766293
 21
149.217386
  0
CIRCLE
  8
2
 62
134
  6
CONTINUOUS
 10
96.337899
 20
165.075036
 40
2.142926
  0
CIRCLE
  8
2
 62
134
  6
CONTINUOUS
 10
96.337899
 20
182.218442
 40
2.142926
  0
CIRCLE
  8
2
 62
134
  6
CONTINUOUS
 10
96.337899
 20
199.361848
 40
2.142926
  0
LINE
  8
2
 62
134
  6
CONTINUOUS
 10
83.480345
 20
240.077436
 11
83.480345
 21
102.930191
  0
LINE
  8
2
 62
134
  6
CONTINUOUS
 10
83.480345
 20
102.930191
 11
109.195454
 21
102.930191
  0
LINE
  8
2
 62
134
  6
CONTINUOUS
 10
109.195454
 20
102.930191
 11
109.195454
 21
240.077436
  0
LINE
  8
2
 62
134
  6
CONTINUOUS
 10
109.195454
 20
240.077436
 11
83.480345
 21
240.077436
  0
LINE
  8
2
 62
134
  6
CONTINUOUS
 10
83.480345
 20
238.463735
 11
109.195454
 21
238.463735
  0
LINE
  8
2
 62
134
  6
CONTINUOUS
 10
83.480345
 20
104.644531
 11
109.195454
 21
104.644531
  0
ENDSEC
  0
EOF
