  0
SECTION
  2
HEADER
  9
$ACADVER
  1
AC1003
  9
$INSBASE
 10
0.000000
 20
0.000000
  9
$EXTMIN
 10
0.000000
 20
0.000000
  9
$EXTMAX
 10
840.000000
 20
594.000000
  9
$LIMMIN
 10
0.000000
 20
0.000000
  9
$LIMMAX
 10
840.000000
 20
594.000000
  9
$VIEWCTR
 10
420.000000
 20
297.000000
  9
$VIEWSIZE
 40
594.000000
  9
$PEXTMIN
 10
0.000000
 20
0.000000
 30
0.000000
  9
$PEXTMAX
 10
420.000000
 20
297.000000
 30
0.000000
  9
$SNAPMODE
 70
     0
  9
$SNAPUNIT
 10
1.000000
 20
1.000000
  9
$SNAPBASE
 10
0.000000
 20
0.000000
  9
$SNAPANG
 50
0.000000
  9
$SNAPISOPAIR
 70
     0
  9
$SNAPSTYLE
 70
     0
  9
$GRIDMODE
 70
     0
  9
$GRIDUNIT
 10
0.000000
 20
0.000000
  9
$ORTHOMODE
 70
     0
  9
$REGENMODE
 70
     1
  9
$FILLMODE
 70
     1
  9
$QTEXTMODE
 70
     0
  9
$DRAGMODE
 70
     2
  9
$LTSCALE
 40
0.500000
  9
$OSMODE
 70
     0
  9
$ATTMODE
 70
     1
  9
$TEXTSIZE
 40
0.200000
  9
$TRACEWID
 40
0.050000
  9
$TEXTSTYLE
  7
STANDARD
  9
$CLAYER
  8
0
  9
$CELTYPE
  6
BYLAYER
  9
$CECOLOR
 62
   256
  9
$DIMSCALE
 40
1.000000
  9
$DIMASZ
 40
1.000000
  9
$DIMEXO
 40
0.000000
  9
$DIMDLI
 40
0.500000
  9
$DIMRND
 40
0.000000
  9
$DIMDLE
 40
0.000000
  9
$DIMEXE
 40
0.000000
  9
$DIMTP
 40
0.000000
  9
$DIMTM
 40
0.000000
  9
$DIMTXT
 40
0.180000
  9
$DIMCEN
 40
0.000000
  9
$DIMTSZ
 40
0.000000
  9
$DIMTOL
 70
     0
  9
$DIMLIM
 70
     0
  9
$DIMTIH
 70
     1
  9
$DIMTOH
 70
     1
  9
$DIMSE1
 70
     0
  9
$DIMSE2
 70
     0
  9
$DIMTAD
 70
     0
  9
$DIMZIN
 70
     0
  9
$DIMBLK
  1

  9
$DIMASO
 70
     0
  9
$DIMSHO
 70
     0
  9
$DIMPOST
  1

  9
$DIMAPOST
  1

  9
$DIMALT
 70
     0
  9
$DIMALTD
 70
     0
  9
$DIMALTF
 40
25.400000
  9
$DIMLFAC
 40
1.000000
  9
$DIMTOFL
 70
     0
  9
$DIMTVP
 40
0.000000
  9
$DIMTIX
 70
     0
  9
$DIMSOXD
 70
     0
  9
$DIMSAH
 70
     0
  9
$DIMBLKL
  1

  9
$DIMBLKR
  1

  9
$LUNITS
 70
     2
  9
$LUPREC
 70
     2
  9
$AXISMODE
 70
     0
  9
$AXISUNIT
 10
1.000000
 20
1.000000
  9
$SKETCHINC
 40
0.000000
  9
$FILLETRAD
 40
0.000000
  9
$AUNITS
 70
     1
  9
$AUPREC
 70
     2
  9
$MENU
  1
ACAD
  9
$ELEVATION
 40
0.000000
  9
$THICKNESS
 40
0.000000
  9
$VIEWDIR
 10
0.000000
 20
0.000000
 30
1.000000
  9
$LIMCHECK
 70
     1
  9
$BLIPMODE
 70
     1
  9
$CHAMFERA
 40
0.000000
  9
$CHAMFERB
 40
0.000000
  9
$FASTZOOM
 70
     1
  9
$SKPOLY
 70
     0
  9
$TDCREATE
 40
0.000000
  9
$TDUPDATE
 40
0.000000
  9
$TDINDWG
 40
0.000000
  9
$TDUSRTIMER
 40
0.000000
  9
$USRTIMER
 70
     1
  9
$ANGBASE
 50
0.000000
  9
$ANGDIR
 70
     0
  9
$PDMODE
 70
     0
  9
$PDSIZE
 40
0.000000
  9
$PLINEWID
 40
0.000000
  9
$COORDS
 70
     2
  9
$USERI1
 70
     0
  9
$USERI2
 70
     0
  9
$USERI3
 70
     0
  9
$USERI4
 70
     0
  9
$USERI5
 70
     0
  9
$USERR1
 40
0.000000
  9
$USERR2
 40
0.000000
  9
$USERR3
 40
0.000000
  9
$USERR4
 40
0.000000
  9
$USERR5
 40
0.000000
  0
ENDSEC
  0
SECTION
  2
TABLES
  0
TABLE
  2
LTYPE
 70
     5
  0
LTYPE
  2
CONTINUOUS
 70
    64
  3
Solid line
 72
    65
 73
     0
 40
0.0
  0
LTYPE
  2
HIDDEN
 70
    64
  3
------------------------
 72
    65
 73
     2
 40
12.6
 49
8.4
 49
-4.2
  0
LTYPE
  2
DOT
 70
    64
  3
････････････････････････
 72
    65
 73
     2
 40
8.0
 49
6.0
 49
-2.0
  0
LTYPE
  2
DASHDOT
 70
    64
  3
--･--･--･--･--･--･--･--
 72
    65
 73
     4
 40
50.5
 49
30.0
 49
-9.0
 49
2.5
 49
-9.0
  0
LTYPE
  2
DIVIDE
 70
    64
  3
--･･--･･--･･--･･--･･--
 72
    65
 73
     6
 40
58.0
 49
30.0
 49
-9.0
 49
2.5
 49
-5.0
 49
2.5
 49
-9.0
  0
ENDTAB
  0
TABLE
  2
LAYER
 70
2
  0
LAYER
  2
1
 70
64
 62
7
  6
CONTINUOUS
  0
LAYER
  2
15
 70
64
 62
96
  6
CONTINUOUS
  0
ENDTAB
  0
TABLE
  2
STYLE
 70
     2
  0
STYLE
  2
STANDARD
 70
    64
 40
0.0
 41
1.0
 50
0.0
 71
     0
 42
0.2
  3
TXT
  4

  0
STYLE
  2
KANJI
 70
    64
 40
0.0
 41
1.0
 50
0.0
 71
     0
 42
0.2
  3
TXT
  4
BIGFONT
  0
ENDTAB
  0
TABLE
  2
VIEW
 70
     0
  0
ENDTAB
  0
ENDSEC
  0
SECTION
  2
BLOCKS
  0
ENDSEC
  0
SECTION
  2
ENTITIES
  0
LINE
  8
15
 62
96
  6
CONTINUOUS
 10
620.173997
 20
445.122388
 11
800.227081
 21
445.122388
  0
TEXT
  8
15
 62
96
  6
CONTINUOUS
 10
633.177831
 20
436.619881
 40
6.001769
 41
0.833333
  1
消費電力
  7
KANJI
 50
0.000000
 51
0.000000
  0
LINE
  8
15
 62
96
  6
CONTINUOUS
 10
30.000000
 20
544.151584
 11
30.000000
 21
30.000000
  0
LINE
  8
15
 62
96
  6
CONTINUOUS
 10
30.000000
 20
30.000000
 11
800.227081
 21
30.000000
  0
LINE
  8
15
 62
96
  6
CONTINUOUS
 10
728.879008
 20
41.403554
 11
703.946332
 21
41.403554
  0
TEXT
  8
15
 62
96
  6
CONTINUOUS
 10
668.409370
 20
39.382282
 40
3.601062
 41
1.018519
  1
出入管理システム
  7
KANJI
 50
0.000000
 51
0.000000
  0
TEXT
  8
15
 62
96
  6
CONTINUOUS
 10
668.550527
 20
31.618634
 40
7.202123
 41
1.782407
  1
株式会社
  7
KANJI
 50
0.000000
 51
0.000000
  0
LINE
  8
15
 62
96
  6
CONTINUOUS
 10
628.756797
 20
31.757640
 11
635.092369
 21
31.757640
  0
LINE
  8
15
 62
96
  6
CONTINUOUS
 10
666.038375
 20
39.457096
 11
666.038375
 21
41.888499
  0
LINE
  8
15
 62
96
  6
CONTINUOUS
 10
663.404362
 20
39.457096
 11
666.038375
 21
39.457096
  0
LINE
  8
15
 62
96
  6
CONTINUOUS
 10
663.404362
 20
31.757640
 11
663.404362
 21
39.457096
  0
LINE
  8
15
 62
96
  6
CONTINUOUS
 10
660.567717
 20
31.757640
 11
663.404362
 21
31.757640
  0
LINE
  8
15
 62
96
  6
CONTINUOUS
 10
658.863116
 20
31.757640
 11
655.299669
 21
31.757640
  0
LINE
  8
15
 62
96
  6
CONTINUOUS
 10
640.508608
 20
31.757640
 11
649.221143
 21
31.757640
  0
LINE
  8
15
 62
96
  6
CONTINUOUS
 10
640.508608
 20
36.012600
 11
640.508608
 21
31.757640
  0
LINE
  8
15
 62
96
  6
CONTINUOUS
 10
635.092369
 20
31.757640
 11
644.966187
 21
41.533696
  0
LINE
  8
15
 62
96
  6
CONTINUOUS
 10
644.966187
 20
41.533696
 11
644.966187
 21
36.012600
  0
LINE
  8
15
 62
96
  6
CONTINUOUS
 10
644.966187
 20
36.012600
 11
640.508608
 21
36.012600
  0
LINE
  8
15
 62
96
  6
CONTINUOUS
 10
649.221143
 20
37.430920
 11
655.299669
 21
31.757640
  0
ARC
  8
15
 62
96
  6
CONTINUOUS
 10
654.083963
 20
38.444008
 40
1.013088
 50
-90.000000
 51
90.000000
  0
LINE
  8
15
 62
96
  6
CONTINUOUS
 10
649.221143
 20
37.430920
 11
654.083963
 21
37.430920
  0
LINE
  8
15
 62
96
  6
CONTINUOUS
 10
650.031617
 20
39.457096
 11
654.083963
 21
39.457096
  0
LINE
  8
15
 62
96
  6
CONTINUOUS
 10
650.031617
 20
41.888499
 11
650.031617
 21
39.457096
  0
LINE
  8
15
 62
96
  6
CONTINUOUS
 10
650.031617
 20
41.888499
 11
654.851778
 21
41.888499
  0
ARC
  8
15
 62
96
  6
CONTINUOUS
 10
654.467866
 20
38.444008
 40
3.465820
 50
-76.055153
 51
83.640296
  0
LINE
  8
15
 62
96
  6
CONTINUOUS
 10
655.299669
 20
35.083527
 11
658.863116
 21
31.757640
  0
LINE
  8
15
 62
96
  6
CONTINUOUS
 10
666.038375
 20
41.888499
 11
657.933686
 21
41.888499
  0
LINE
  8
15
 62
96
  6
CONTINUOUS
 10
657.933686
 20
41.888499
 11
657.933686
 21
39.457096
  0
LINE
  8
15
 62
96
  6
CONTINUOUS
 10
657.933686
 20
39.457096
 11
660.567717
 21
39.457096
  0
LINE
  8
15
 62
96
  6
CONTINUOUS
 10
660.567717
 20
39.457096
 11
660.567717
 21
31.757640
  0
TEXT
  8
15
 62
96
  6
CONTINUOUS
 10
621.036305
 20
95.928688
 40
5.001474
 41
0.900000
  1
製品名
  7
KANJI
 50
0.000000
 51
0.000000
  0
LINE
  8
15
 62
96
  6
CONTINUOUS
 10
620.173997
 20
30.000000
 11
620.173997
 21
120.026556
  0
LINE
  8
15
 62
96
  6
CONTINUOUS
 10
620.173997
 20
102.021247
 11
800.227081
 21
102.021247
  0
LINE
  8
15
 62
96
  6
CONTINUOUS
 10
620.173997
 20
102.021234
 11
800.227081
 21
102.021247
  0
LINE
  8
15
 62
96
  6
CONTINUOUS
 10
800.227081
 20
54.007092
 11
620.173997
 21
54.007078
  0
TEXT
  8
15
 62
96
  6
CONTINUOUS
 10
621.665981
 20
78.177051
 40
5.001474
 41
0.900000
  1
縮尺（Ａ３）
  7
KANJI
 50
0.000000
 51
0.000000
  0
LINE
  8
15
 62
96
  6
CONTINUOUS
 10
650.182845
 20
66.010619
 11
650.182845
 21
54.007080
  0
LINE
  8
15
 62
96
  6
CONTINUOUS
 10
649.221143
 20
31.757640
 11
649.221143
 21
52.019363
  0
LINE
  8
15
 62
96
  6
CONTINUOUS
 10
649.221143
 20
52.019363
 11
628.756797
 21
31.757640
  0
LINE
  8
15
 62
96
  6
CONTINUOUS
 10
648.687832
 20
51.491333
 11
649.221143
 21
51.491333
  0
TEXT
  8
15
 62
96
  6
CONTINUOUS
 10
733.224966
 20
30.773985
 40
20.005898
 41
0.833333
  1
アート
  7
KANJI
 50
0.000000
 51
0.000000
  0
TEXT
  8
15
 62
96
  6
CONTINUOUS
 10
624.450470
 20
57.026766
 40
5.001474
 41
0.900000
  1
図面番号
  7
KANJI
 50
0.000000
 51
0.000000
  0
TEXT
  8
15
 62
96
  6
CONTINUOUS
 10
752.320241
 20
77.711739
 40
5.001474
 41
0.900000
  1
作図
  7
KANJI
 50
0.000000
 51
0.000000
  0
LINE
  8
15
 62
96
  6
CONTINUOUS
 10
650.182845
 20
84.015925
 11
650.182845
 21
66.010619
  0
LINE
  8
15
 62
96
  6
CONTINUOUS
 10
700.197590
 20
84.015925
 11
700.197590
 21
66.010623
  0
LINE
  8
15
 62
96
  6
CONTINUOUS
 10
750.212336
 20
84.015925
 11
750.212336
 21
66.010627
  0
LINE
  8
15
 62
96
  6
CONTINUOUS
 10
620.173997
 20
533.148340
 11
800.227081
 21
533.148340
  0
LINE
  8
15
 62
96
  6
CONTINUOUS
 10
620.173997
 20
522.145096
 11
800.227081
 21
522.145096
  0
LINE
  8
15
 62
96
  6
CONTINUOUS
 10
620.173997
 20
511.141852
 11
800.227081
 21
511.141852
  0
LINE
  8
15
 62
96
  6
CONTINUOUS
 10
620.173997
 20
489.135364
 11
800.227081
 21
489.135364
  0
LINE
  8
15
 62
96
  6
CONTINUOUS
 10
620.173997
 20
456.125632
 11
800.227081
 21
456.125632
  0
LINE
  8
15
 62
96
  6
CONTINUOUS
 10
620.173997
 20
478.132120
 11
800.227081
 21
478.132120
  0
LINE
  8
15
 62
96
  6
CONTINUOUS
 10
620.173997
 20
467.128876
 11
800.227081
 21
467.128876
  0
LINE
  8
15
 62
96
  6
CONTINUOUS
 10
620.173997
 20
544.151584
 11
620.173997
 21
145.033928
  0
LINE
  8
15
 62
96
  6
CONTINUOUS
 10
620.173997
 20
120.026556
 11
620.173997
 21
145.033928
  0
TEXT
  8
15
 62
96
  6
DIVIDE
 10
630.176946
 20
535.649077
 40
6.001769
 41
0.833333
  1
商品コード
  7
KANJI
 50
0.000000
 51
0.000000
  0
TEXT
  8
15
 62
96
  6
DIVIDE
 10
689.194346
 20
524.645833
 40
6.001769
 41
0.833333
  1
定　　　　　格
  7
KANJI
 50
0.000000
 51
0.000000
  0
LINE
  8
15
 62
96
  6
CONTINUOUS
 10
800.220119
 20
290.869593
 11
800.220119
 21
295.133722
  0
LINE
  8
15
 62
96
  6
CONTINUOUS
 10
30.000000
 20
544.151584
 11
800.227600
 21
544.151584
  0
LINE
  8
15
 62
96
  6
CONTINUOUS
 10
800.227600
 20
29.999354
 11
800.227600
 21
544.150938
  0
TEXT
  8
15
 62
96
  6
CONTINUOUS
 10
621.035263
 20
113.255697
 40
5.001474
 41
0.900000
  1
型　式
  7
KANJI
 50
0.000000
 51
0.000000
  0
LINE
  8
15
 62
96
  6
CONTINUOUS
 10
620.172955
 20
119.026247
 11
800.226039
 21
119.026247
  0
LINE
  8
15
 62
96
  6
CONTINUOUS
 10
669.905314
 20
544.151584
 11
669.905314
 21
533.148340
  0
LINE
  8
15
 62
96
  6
CONTINUOUS
 10
620.172955
 20
130.029491
 11
800.226039
 21
130.029491
  0
TEXT
  8
15
 62
96
  6
CONTINUOUS
 10
632.576612
 20
121.526984
 40
6.001769
 41
0.944444
  1
図面履歴
  7
KANJI
 50
-0.000000
 51
0.000000
  0
LINE
  8
15
 62
96
  6
CONTINUOUS
 10
620.172955
 20
119.026247
 11
800.226039
 21
119.026247
  0
LINE
  8
15
 62
96
  6
CONTINUOUS
 10
670.187701
 20
130.029491
 11
670.187701
 21
119.026247
  0
LINE
  8
15
 62
96
  6
CONTINUOUS
 10
620.172955
 20
119.026247
 11
800.226039
 21
119.026247
  0
LINE
  8
15
 62
96
  6
CONTINUOUS
 10
710.241002
 20
66.007085
 11
710.241002
 21
54.007085
  0
LINE
  8
15
 62
96
  6
CONTINUOUS
 10
724.241002
 20
66.007095
 11
724.241002
 21
54.007095
  0
TEXT
  8
15
 62
96
  6
CONTINUOUS
 10
712.264335
 20
57.242959
 40
5.000000
 41
0.900000
  1
日付
  7
KANJI
 50
0.000000
 51
0.000000
  0
LINE
  8
15
 62
96
  6
CONTINUOUS
 10
776.227081
 20
66.007090
 11
776.227081
 21
54.007090
  0
LINE
  8
15
 62
96
  6
CONTINUOUS
 10
782.328460
 20
64.487090
 11
782.328460
 21
55.527090
  0
CIRCLE
  8
15
 62
96
  6
CONTINUOUS
 10
782.328460
 20
60.007090
 40
1.920000
  0
CIRCLE
  8
15
 62
96
  6
CONTINUOUS
 10
782.328460
 20
60.007090
 40
3.200000
  0
LINE
  8
15
 62
96
  6
CONTINUOUS
 10
787.607002
 20
61.927090
 11
787.607002
 21
58.087090
  0
LINE
  8
15
 62
96
  6
CONTINUOUS
 10
797.847002
 20
63.207090
 11
797.847002
 21
56.807090
  0
LINE
  8
15
 62
96
  6
CONTINUOUS
 10
787.607002
 20
61.927090
 11
797.847002
 21
63.207090
  0
LINE
  8
15
 62
96
  6
CONTINUOUS
 10
787.607002
 20
58.087090
 11
797.847002
 21
56.807090
  0
LINE
  8
15
 62
96
  6
CONTINUOUS
 10
777.848460
 20
60.007090
 11
798.939002
 21
60.007090
  0
TEXT
  8
15
 62
96
  6
CONTINUOUS
 10
651.605163
 20
78.365937
 40
5.001474
 41
0.900000
  1
承認
  7
KANJI
 50
0.000000
 51
0.000000
  0
TEXT
  8
15
 62
96
  6
CONTINUOUS
 10
701.619909
 20
78.365937
 40
5.001474
 41
0.900000
  1
検図
  7
KANJI
 50
0.000000
 51
0.000000
  0
TEXT
  8
15
 62
96
  6
CONTINUOUS
 10
720.835107
 20
69.141220
 40
10.002949
 41
0.900000
  1
辻
  7
KANJI
 50
0.000000
 51
0.000000
  0
TEXT
  8
15
 62
96
  6
CONTINUOUS
 10
664.974161
 20
69.141220
 40
10.002949
 41
0.900000
  1
仲代
  7
KANJI
 50
0.000000
 51
0.000000
  0
LINE
  8
15
 62
96
  6
CONTINUOUS
 10
800.227600
 20
66.010630
 11
620.173997
 21
66.010617
  0
LINE
  8
15
 62
96
  6
CONTINUOUS
 10
620.173997
 20
84.015925
 11
800.227600
 21
84.015925
  0
TEXT
  8
15
 62
96
  6
DIVIDE
 10
714.201719
 20
535.649077
 40
6.001769
 41
0.833333
  1
０８０３０１７
  7
KANJI
 50
0.000000
 51
0.000000
  0
TEXT
  8
15
 62
96
  6
DIVIDE
 10
633.177831
 20
513.642589
 40
6.001769
 41
0.833333
  1
駆動方式
  7
KANJI
 50
0.000000
 51
0.000000
  0
TEXT
  8
15
 62
96
  6
DIVIDE
 10
633.177831
 20
502.639345
 40
6.001769
 41
0.833333
  1
停電補償
  7
KANJI
 50
0.000000
 51
0.000000
  0
TEXT
  8
15
 62
96
  6
DIVIDE
 10
633.177831
 20
491.636101
 40
6.001769
 41
0.833333
  1
接点構成
  7
KANJI
 50
0.000000
 51
0.000000
  0
TEXT
  8
15
 62
96
  6
DIVIDE
 10
627.176062
 20
480.632857
 40
6.001769
 41
0.833333
  1
設定最小単位
  7
KANJI
 50
0.000000
 51
0.000000
  0
TEXT
  8
15
 62
96
  6
DIVIDE
 10
621.174292
 20
469.629613
 40
6.001769
 41
0.833333
  1
最小時間設定間隔
  7
KANJI
 50
0.000000
 51
0.000000
  0
TEXT
  8
15
 62
96
  6
DIVIDE
 10
636.178716
 20
458.626369
 40
6.001769
 41
0.833333
  1
動作数
  7
KANJI
 50
0.000000
 51
0.000000
  0
TEXT
  8
15
 62
96
  6
CONTINUOUS
 10
633.177831
 20
447.623125
 40
6.001769
 41
0.833333
  1
定格電圧
  7
KANJI
 50
0.000000
 51
0.000000
  0
TEXT
  8
15
 62
96
  6
DIVIDE
 10
726.205258
 20
513.642589
 40
6.001769
 41
0.833333
  1
電子式
  7
KANJI
 50
0.000000
 51
0.000000
  0
TEXT
  8
15
 62
96
  6
DIVIDE
 10
729.202131
 20
480.569715
 40
6.001769
 41
0.833333
  1
１分
  7
KANJI
 50
0.000000
 51
0.000000
  0
TEXT
  8
15
 62
96
  6
DIVIDE
 10
729.195931
 20
469.571715
 40
6.001769
 41
0.833333
  1
１分
  7
KANJI
 50
0.000000
 51
0.000000
  0
LINE
  8
15
 62
96
  6
CONTINUOUS
 10
669.905314
 20
522.172046
 11
669.905314
 21
434.119144
  0
TEXT
  8
15
 62
96
  6
CONTINUOUS
 10
709.779597
 20
121.540798
 40
6.001769
 41
0.566667
  1
G13007-02-03728
  7
KANJI
 50
0.000000
 51
0.000000
  0
TEXT
  8
15
 62
96
  6
CONTINUOUS
 10
767.671106
 20
69.141220
 40
10.002949
 41
0.900000
  1
森
  7
KANJI
 50
0.000000
 51
0.000000
  0
TEXT
  8
15
 62
96
  6
CONTINUOUS
 10
684.391889
 20
105.022118
 40
10.002949
 41
0.900000
  1
Ｓ２４ＴＭ
  7
KANJI
 50
0.000000
 51
0.000000
  0
LINE
  8
1
 62
7
  6
CONTINUOUS
 10
165.528963
 20
471.221386
 11
265.528963
 21
471.221386
  0
ARC
  8
1
 62
7
  6
CONTINUOUS
 10
216.217653
 20
266.400085
 40
3.885552
 50
-144.674570
 51
-34.711172
  0
ARC
  8
1
 62
7
  6
CONTINUOUS
 10
216.217653
 20
266.400085
 40
3.885552
 50
27.388071
 51
152.611929
  0
ARC
  8
1
 62
7
  6
CONTINUOUS
 10
221.597385
 20
264.687497
 40
0.500000
 50
-90.000000
 51
0.000000
  0
LINE
  8
1
 62
7
  6
CONTINUOUS
 10
222.097385
 20
267.687497
 11
222.097385
 21
264.687497
  0
LINE
  8
1
 62
7
  6
CONTINUOUS
 10
221.597385
 20
264.187497
 11
219.411705
 21
264.187497
  0
ARC
  8
1
 62
7
  6
CONTINUOUS
 10
221.597385
 20
267.687497
 40
0.500000
 50
0.000000
 51
90.000000
  0
LINE
  8
1
 62
7
  6
CONTINUOUS
 10
219.667678
 20
268.187497
 11
221.597385
 21
268.187497
  0
ARC
  8
1
 62
7
  6
CONTINUOUS
 10
210.837921
 20
264.687497
 40
0.500000
 50
180.000000
 51
-90.000000
  0
LINE
  8
1
 62
7
  6
CONTINUOUS
 10
210.337921
 20
267.687497
 11
210.337921
 21
264.687497
  0
LINE
  8
1
 62
7
  6
CONTINUOUS
 10
210.837921
 20
264.187497
 11
213.023601
 21
264.187497
  0
ARC
  8
1
 62
7
  6
CONTINUOUS
 10
210.837921
 20
267.687497
 40
0.500000
 50
90.000000
 51
180.000000
  0
LINE
  8
1
 62
7
  6
CONTINUOUS
 10
212.767628
 20
268.187497
 11
210.837921
 21
268.187497
  0
LINE
  8
1
 62
7
  6
CONTINUOUS
 10
167.528963
 20
153.221386
 11
263.528963
 21
153.221386
  0
ARC
  8
1
 62
7
  6
CONTINUOUS
 10
181.528963
 20
67.221386
 40
2.000000
 50
180.000000
 51
-90.000000
  0
LINE
  8
1
 62
7
  6
CONTINUOUS
 10
207.528963
 20
65.221386
 11
181.528963
 21
65.221386
  0
LINE
  8
1
 62
7
  6
CONTINUOUS
 10
179.528963
 20
75.221386
 11
179.528963
 21
67.221386
  0
LINE
  8
1
 62
7
  6
CONTINUOUS
 10
203.528963
 20
75.221386
 11
203.528963
 21
81.221386
  0
LINE
  8
1
 62
7
  6
CONTINUOUS
 10
203.528963
 20
81.221386
 11
177.528963
 21
81.221386
  0
LINE
  8
1
 62
7
  6
CONTINUOUS
 10
177.528963
 20
81.221386
 11
177.528963
 21
77.221386
  0
LINE
  8
1
 62
7
  6
CONTINUOUS
 10
179.528963
 20
75.221386
 11
203.528963
 21
75.221386
  0
ARC
  8
1
 62
7
  6
CONTINUOUS
 10
179.528963
 20
77.221386
 40
2.000000
 50
180.000000
 51
-90.000000
  0
LINE
  8
1
 62
7
  6
CONTINUOUS
 10
203.528963
 20
69.221386
 11
203.528963
 21
75.221386
  0
LINE
  8
1
 62
7
  6
CONTINUOUS
 10
227.528963
 20
75.221386
 11
227.528963
 21
69.221386
  0
LINE
  8
1
 62
7
  6
CONTINUOUS
 10
227.528963
 20
81.221386
 11
227.528963
 21
75.221386
  0
LINE
  8
1
 62
7
  6
CONTINUOUS
 10
253.528963
 20
81.221386
 11
227.528963
 21
81.221386
  0
LINE
  8
1
 62
7
  6
CONTINUOUS
 10
227.528963
 20
75.221386
 11
251.528963
 21
75.221386
  0
LINE
  8
1
 62
7
  6
CONTINUOUS
 10
253.528963
 20
77.221386
 11
253.528963
 21
81.221386
  0
ARC
  8
1
 62
7
  6
CONTINUOUS
 10
251.528963
 20
77.221386
 40
2.000000
 50
-90.000000
 51
0.000000
  0
ARC
  8
1
 62
7
  6
CONTINUOUS
 10
249.528963
 20
67.221386
 40
2.000000
 50
-90.000000
 51
0.000000
  0
LINE
  8
1
 62
7
  6
CONTINUOUS
 10
251.528963
 20
75.221386
 11
251.528963
 21
67.221386
  0
LINE
  8
1
 62
7
  6
CONTINUOUS
 10
227.528963
 20
65.221386
 11
249.528963
 21
65.221386
  0
ARC
  8
1
 62
7
  6
CONTINUOUS
 10
169.528963
 20
79.221386
 40
2.000000
 50
180.000000
 51
-90.000000
  0
LINE
  8
1
 62
7
  6
CONTINUOUS
 10
167.528963
 20
79.221386
 11
167.528963
 21
103.221386
  0
ARC
  8
1
 62
7
  6
CONTINUOUS
 10
167.528963
 20
79.221386
 40
2.000000
 50
180.000000
 51
-90.000000
  0
LINE
  8
1
 62
7
  6
CONTINUOUS
 10
165.528963
 20
103.221386
 11
165.528963
 21
79.221386
  0
LINE
  8
1
 62
7
  6
CONTINUOUS
 10
167.528963
 20
103.221386
 11
165.528963
 21
103.221386
  0
LINE
  8
1
 62
7
  6
CONTINUOUS
 10
169.528963
 20
77.221386
 11
179.528963
 21
77.221386
  0
LINE
  8
1
 62
7
  6
CONTINUOUS
 10
265.528963
 20
103.221386
 11
263.528963
 21
103.221386
  0
LINE
  8
1
 62
7
  6
CONTINUOUS
 10
263.528963
 20
103.221386
 11
263.528963
 21
79.221386
  0
LINE
  8
1
 62
7
  6
CONTINUOUS
 10
265.528963
 20
79.221386
 11
265.528963
 21
103.221386
  0
ARC
  8
1
 62
7
  6
CONTINUOUS
 10
263.528963
 20
79.221386
 40
2.000000
 50
-90.000000
 51
0.000000
  0
ARC
  8
1
 62
7
  6
CONTINUOUS
 10
261.528963
 20
79.221386
 40
2.000000
 50
-90.000000
 51
0.000000
  0
LINE
  8
1
 62
7
  6
CONTINUOUS
 10
261.528963
 20
77.221386
 11
251.528963
 21
77.221386
  0
LINE
  8
1
 62
7
  6
CONTINUOUS
 10
203.528963
 20
69.221386
 11
203.528963
 21
75.221386
  0
LINE
  8
1
 62
7
  6
CONTINUOUS
 10
207.528963
 20
69.221386
 11
207.528963
 21
65.221386
  0
LINE
  8
1
 62
7
  6
CONTINUOUS
 10
203.528963
 20
69.221386
 11
207.528963
 21
69.221386
  0
LINE
  8
1
 62
7
  6
CONTINUOUS
 10
223.528963
 20
65.221386
 11
227.528963
 21
65.221386
  0
LINE
  8
1
 62
7
  6
CONTINUOUS
 10
223.528963
 20
69.221386
 11
223.528963
 21
65.221386
  0
LINE
  8
1
 62
7
  6
CONTINUOUS
 10
227.528963
 20
69.221386
 11
223.528963
 21
69.221386
  0
LINE
  8
1
 62
7
  6
CONTINUOUS
 10
265.528963
 20
197.221386
 11
265.528963
 21
162.804947
  0
LINE
  8
1
 62
7
  6
CONTINUOUS
 10
167.528963
 20
185.221386
 11
263.528963
 21
185.221386
  0
LINE
  8
1
 62
7
  6
CONTINUOUS
 10
263.528963
 20
197.221386
 11
167.528963
 21
197.221386
  0
LINE
  8
1
 62
7
  6
CONTINUOUS
 10
167.528963
 20
197.221386
 11
167.528963
 21
178.846312
  0
LINE
  8
1
 62
7
  6
CONTINUOUS
 10
263.528963
 20
180.221386
 11
263.528963
 21
197.221386
  0
LINE
  8
1
 62
7
  6
CONTINUOUS
 10
165.528963
 20
179.221386
 11
165.528963
 21
146.221386
  0
LINE
  8
1
 62
7
  6
CONTINUOUS
 10
165.528963
 20
197.221386
 11
165.528963
 21
173.221386
  0
ARC
  8
1
 62
7
  6
CONTINUOUS
 10
168.443655
 20
218.621386
 40
1.000000
 50
90.000000
 51
174.897835
  0
LINE
  8
1
 62
7
  6
CONTINUOUS
 10
165.528963
 20
197.221386
 11
167.447617
 21
218.710318
  0
LINE
  8
1
 62
7
  6
CONTINUOUS
 10
168.443655
 20
219.621386
 11
262.614270
 21
219.621386
  0
ARC
  8
1
 62
7
  6
CONTINUOUS
 10
170.229369
 20
216.221386
 40
1.000000
 50
90.000000
 51
174.897835
  0
LINE
  8
1
 62
7
  6
CONTINUOUS
 10
260.828556
 20
217.221386
 11
170.229369
 21
217.221386
  0
LINE
  8
1
 62
7
  6
CONTINUOUS
 10
169.233332
 20
216.310318
 11
167.528963
 21
197.221386
  0
ARC
  8
1
 62
7
  6
CONTINUOUS
 10
262.614270
 20
218.621386
 40
1.000000
 50
5.102165
 51
90.000000
  0
LINE
  8
1
 62
7
  6
CONTINUOUS
 10
263.610308
 20
218.710318
 11
265.528963
 21
197.221386
  0
ARC
  8
1
 62
7
  6
CONTINUOUS
 10
260.828556
 20
216.221386
 40
1.000000
 50
5.102165
 51
90.000000
  0
LINE
  8
1
 62
7
  6
CONTINUOUS
 10
263.528963
 20
197.221386
 11
261.824594
 21
216.310318
  0
LINE
  8
1
 62
7
  6
CONTINUOUS
 10
175.528963
 20
201.221386
 11
175.528963
 21
197.221386
  0
LINE
  8
1
 62
7
  6
CONTINUOUS
 10
175.528963
 20
197.221386
 11
189.528963
 21
197.221386
  0
LINE
  8
1
 62
7
  6
CONTINUOUS
 10
189.528963
 20
197.221386
 11
189.528963
 21
201.221386
  0
LINE
  8
1
 62
7
  6
CONTINUOUS
 10
189.528963
 20
201.221386
 11
175.528963
 21
201.221386
  0
LINE
  8
1
 62
7
  6
CONTINUOUS
 10
197.528963
 20
201.221386
 11
197.528963
 21
197.221386
  0
LINE
  8
1
 62
7
  6
CONTINUOUS
 10
197.528963
 20
197.221386
 11
211.528963
 21
197.221386
  0
LINE
  8
1
 62
7
  6
CONTINUOUS
 10
211.528963
 20
197.221386
 11
211.528963
 21
201.221386
  0
LINE
  8
1
 62
7
  6
CONTINUOUS
 10
211.528963
 20
201.221386
 11
197.528963
 21
201.221386
  0
LINE
  8
1
 62
7
  6
CONTINUOUS
 10
219.528963
 20
201.221386
 11
219.528963
 21
197.221386
  0
LINE
  8
1
 62
7
  6
CONTINUOUS
 10
219.528963
 20
197.221386
 11
233.528963
 21
197.221386
  0
LINE
  8
1
 62
7
  6
CONTINUOUS
 10
233.528963
 20
197.221386
 11
233.528963
 21
201.221386
  0
LINE
  8
1
 62
7
  6
CONTINUOUS
 10
233.528963
 20
201.221386
 11
219.528963
 21
201.221386
  0
LINE
  8
1
 62
7
  6
CONTINUOUS
 10
241.528963
 20
201.221386
 11
241.528963
 21
197.221386
  0
LINE
  8
1
 62
7
  6
CONTINUOUS
 10
241.528963
 20
197.221386
 11
255.528963
 21
197.221386
  0
LINE
  8
1
 62
7
  6
CONTINUOUS
 10
255.528963
 20
197.221386
 11
255.528963
 21
201.221386
  0
LINE
  8
1
 62
7
  6
CONTINUOUS
 10
255.528963
 20
201.221386
 11
241.528963
 21
201.221386
  0
LINE
  8
1
 62
7
  6
CONTINUOUS
 10
167.528963
 20
163.442181
 11
167.528963
 21
180.221386
  0
LINE
  8
1
 62
7
  6
CONTINUOUS
 10
263.528963
 20
180.221386
 11
263.528963
 21
159.221386
  0
LINE
  8
1
 62
7
  6
CONTINUOUS
 10
165.528963
 20
146.221386
 11
165.528963
 21
144.409766
  0
LINE
  8
1
 62
7
  6
CONTINUOUS
 10
167.528963
 20
146.221386
 11
167.528963
 21
165.221386
  0
LINE
  8
1
 62
7
  6
CONTINUOUS
 10
167.528963
 20
165.221386
 11
165.528963
 21
165.221386
  0
LINE
  8
1
 62
7
  6
CONTINUOUS
 10
263.528963
 20
165.221386
 11
263.528963
 21
146.221386
  0
LINE
  8
1
 62
7
  6
CONTINUOUS
 10
265.528963
 20
146.221386
 11
265.528963
 21
165.221386
  0
LINE
  8
1
 62
7
  6
CONTINUOUS
 10
265.528963
 20
165.221386
 11
263.528963
 21
165.221386
  0
LINE
  8
1
 62
7
  6
CONTINUOUS
 10
259.528963
 20
175.221386
 11
171.528963
 21
175.221386
  0
LINE
  8
1
 62
7
  6
CONTINUOUS
 10
259.528963
 20
173.221386
 11
259.528963
 21
175.221386
  0
LINE
  8
1
 62
7
  6
CONTINUOUS
 10
171.528963
 20
173.221386
 11
259.528963
 21
173.221386
  0
LINE
  8
1
 62
7
  6
CONTINUOUS
 10
171.528963
 20
175.221386
 11
171.528963
 21
173.221386
  0
LINE
  8
1
 62
7
  6
CONTINUOUS
 10
263.528963
 20
185.221386
 11
265.528963
 21
185.221386
  0
LINE
  8
1
 62
7
  6
CONTINUOUS
 10
265.528963
 20
185.221386
 11
165.528963
 21
185.221386
  0
ARC
  8
1
 62
7
  6
CONTINUOUS
 10
170.528963
 20
180.221386
 40
1.000000
 50
0.000000
 51
90.000000
  0
LINE
  8
1
 62
7
  6
CONTINUOUS
 10
171.528963
 20
180.221386
 11
171.528963
 21
173.221386
  0
LINE
  8
1
 62
7
  6
CONTINUOUS
 10
168.528963
 20
181.221386
 11
170.528963
 21
181.221386
  0
ARC
  8
1
 62
7
  6
CONTINUOUS
 10
168.528963
 20
180.221386
 40
1.000000
 50
90.000000
 51
180.000000
  0
ARC
  8
1
 62
7
  6
CONTINUOUS
 10
262.528963
 20
180.221386
 40
1.000000
 50
0.000000
 51
90.000000
  0
LINE
  8
1
 62
7
  6
CONTINUOUS
 10
260.528963
 20
181.221386
 11
262.528963
 21
181.221386
  0
ARC
  8
1
 62
7
  6
CONTINUOUS
 10
260.528963
 20
180.221386
 40
1.000000
 50
90.000000
 51
180.000000
  0
LINE
  8
1
 62
7
  6
CONTINUOUS
 10
259.528963
 20
173.221386
 11
259.528963
 21
180.221386
  0
LINE
  8
1
 62
7
  6
CONTINUOUS
 10
165.528963
 20
146.221386
 11
165.528963
 21
103.221386
  0
LINE
  8
1
 62
7
  6
CONTINUOUS
 10
167.528963
 20
103.221386
 11
167.528963
 21
146.221386
  0
LINE
  8
1
 62
7
  6
CONTINUOUS
 10
165.528963
 20
103.221386
 11
167.528963
 21
103.221386
  0
LINE
  8
1
 62
7
  6
CONTINUOUS
 10
263.528963
 20
146.221386
 11
263.528963
 21
103.221386
  0
LINE
  8
1
 62
7
  6
CONTINUOUS
 10
265.528963
 20
103.221386
 11
265.528963
 21
146.221386
  0
LINE
  8
1
 62
7
  6
CONTINUOUS
 10
263.528963
 20
103.221386
 11
265.528963
 21
103.221386
  0
LINE
  8
1
 62
7
  6
CONTINUOUS
 10
167.528963
 20
146.221386
 11
167.528963
 21
115.221386
  0
LINE
  8
1
 62
7
  6
CONTINUOUS
 10
167.528963
 20
115.221386
 11
173.528963
 21
115.221386
  0
LINE
  8
1
 62
7
  6
CONTINUOUS
 10
173.528963
 20
115.221386
 11
173.528963
 21
146.221386
  0
LINE
  8
1
 62
7
  6
CONTINUOUS
 10
173.528963
 20
146.221386
 11
167.528963
 21
146.221386
  0
LINE
  8
1
 62
7
  6
CONTINUOUS
 10
187.528963
 20
146.221386
 11
187.528963
 21
115.221386
  0
LINE
  8
1
 62
7
  6
CONTINUOUS
 10
187.528963
 20
115.221386
 11
191.528963
 21
115.221386
  0
LINE
  8
1
 62
7
  6
CONTINUOUS
 10
191.528963
 20
115.221386
 11
191.528963
 21
146.221386
  0
LINE
  8
1
 62
7
  6
CONTINUOUS
 10
191.528963
 20
146.221386
 11
187.528963
 21
146.221386
  0
LINE
  8
1
 62
7
  6
CONTINUOUS
 10
205.528963
 20
146.221386
 11
205.528963
 21
115.221386
  0
LINE
  8
1
 62
7
  6
CONTINUOUS
 10
205.528963
 20
115.221386
 11
209.528963
 21
115.221386
  0
LINE
  8
1
 62
7
  6
CONTINUOUS
 10
209.528963
 20
115.221386
 11
209.528963
 21
146.221386
  0
LINE
  8
1
 62
7
  6
CONTINUOUS
 10
209.528963
 20
146.221386
 11
205.528963
 21
146.221386
  0
LINE
  8
1
 62
7
  6
CONTINUOUS
 10
223.528963
 20
146.221386
 11
223.528963
 21
115.221386
  0
LINE
  8
1
 62
7
  6
CONTINUOUS
 10
223.528963
 20
115.221386
 11
227.528963
 21
115.221386
  0
LINE
  8
1
 62
7
  6
CONTINUOUS
 10
227.528963
 20
115.221386
 11
227.528963
 21
146.221386
  0
LINE
  8
1
 62
7
  6
CONTINUOUS
 10
227.528963
 20
146.221386
 11
223.528963
 21
146.221386
  0
LINE
  8
1
 62
7
  6
CONTINUOUS
 10
241.528963
 20
146.221386
 11
241.528963
 21
115.221386
  0
LINE
  8
1
 62
7
  6
CONTINUOUS
 10
241.528963
 20
115.221386
 11
245.528963
 21
115.221386
  0
LINE
  8
1
 62
7
  6
CONTINUOUS
 10
245.528963
 20
115.221386
 11
245.528963
 21
146.221386
  0
LINE
  8
1
 62
7
  6
CONTINUOUS
 10
245.528963
 20
146.221386
 11
241.528963
 21
146.221386
  0
LINE
  8
1
 62
7
  6
CONTINUOUS
 10
259.528963
 20
146.221386
 11
259.528963
 21
115.221386
  0
LINE
  8
1
 62
7
  6
CONTINUOUS
 10
259.528963
 20
115.221386
 11
263.528963
 21
115.221386
  0
LINE
  8
1
 62
7
  6
CONTINUOUS
 10
263.528963
 20
115.221386
 11
263.528963
 21
146.221386
  0
LINE
  8
1
 62
7
  6
CONTINUOUS
 10
263.528963
 20
146.221386
 11
259.528963
 21
146.221386
  0
LINE
  8
1
 62
7
  6
CONTINUOUS
 10
180.290881
 20
134.221386
 11
180.290881
 21
132.221386
  0
LINE
  8
1
 62
7
  6
CONTINUOUS
 10
180.290881
 20
132.221386
 11
181.197356
 21
132.221386
  0
LINE
  8
1
 62
7
  6
CONTINUOUS
 10
181.197356
 20
132.221386
 11
181.197356
 21
134.221386
  0
LINE
  8
1
 62
7
  6
CONTINUOUS
 10
181.197356
 20
134.221386
 11
180.290881
 21
134.221386
  0
ARC
  8
1
 62
7
  6
CONTINUOUS
 10
182.790983
 20
130.221386
 40
4.000000
 50
0.000000
 51
90.000000
  0
LINE
  8
1
 62
7
  6
CONTINUOUS
 10
178.790983
 20
134.221386
 11
182.790983
 21
134.221386
  0
ARC
  8
1
 62
7
  6
CONTINUOUS
 10
178.790983
 20
130.221386
 40
4.000000
 50
90.000000
 51
180.000000
  0
LINE
  8
1
 62
7
  6
CONTINUOUS
 10
198.279454
 20
134.221386
 11
198.279454
 21
132.221386
  0
LINE
  8
1
 62
7
  6
CONTINUOUS
 10
198.279454
 20
132.221386
 11
199.185928
 21
132.221386
  0
LINE
  8
1
 62
7
  6
CONTINUOUS
 10
199.185928
 20
132.221386
 11
199.185928
 21
134.221386
  0
LINE
  8
1
 62
7
  6
CONTINUOUS
 10
199.185928
 20
134.221386
 11
198.279454
 21
134.221386
  0
ARC
  8
1
 62
7
  6
CONTINUOUS
 10
200.779555
 20
130.221386
 40
4.000000
 50
0.000000
 51
90.000000
  0
LINE
  8
1
 62
7
  6
CONTINUOUS
 10
196.779555
 20
134.221386
 11
200.779555
 21
134.221386
  0
ARC
  8
1
 62
7
  6
CONTINUOUS
 10
196.779555
 20
130.221386
 40
4.000000
 50
90.000000
 51
180.000000
  0
LINE
  8
1
 62
7
  6
CONTINUOUS
 10
216.342745
 20
134.221386
 11
216.342745
 21
132.221386
  0
LINE
  8
1
 62
7
  6
CONTINUOUS
 10
216.342745
 20
132.221386
 11
217.249220
 21
132.221386
  0
LINE
  8
1
 62
7
  6
CONTINUOUS
 10
217.249220
 20
132.221386
 11
217.249220
 21
134.221386
  0
LINE
  8
1
 62
7
  6
CONTINUOUS
 10
217.249220
 20
134.221386
 11
216.342745
 21
134.221386
  0
ARC
  8
1
 62
7
  6
CONTINUOUS
 10
218.842847
 20
130.221386
 40
4.000000
 50
0.000000
 51
90.000000
  0
LINE
  8
1
 62
7
  6
CONTINUOUS
 10
214.842847
 20
134.221386
 11
218.842847
 21
134.221386
  0
ARC
  8
1
 62
7
  6
CONTINUOUS
 10
214.842847
 20
130.221386
 40
4.000000
 50
90.000000
 51
180.000000
  0
LINE
  8
1
 62
7
  6
CONTINUOUS
 10
234.219240
 20
134.221386
 11
234.219240
 21
132.221386
  0
LINE
  8
1
 62
7
  6
CONTINUOUS
 10
234.219240
 20
132.221386
 11
235.125714
 21
132.221386
  0
LINE
  8
1
 62
7
  6
CONTINUOUS
 10
235.125714
 20
132.221386
 11
235.125714
 21
134.221386
  0
LINE
  8
1
 62
7
  6
CONTINUOUS
 10
235.125714
 20
134.221386
 11
234.219240
 21
134.221386
  0
ARC
  8
1
 62
7
  6
CONTINUOUS
 10
236.719341
 20
130.221386
 40
4.000000
 50
0.000000
 51
90.000000
  0
LINE
  8
1
 62
7
  6
CONTINUOUS
 10
232.719341
 20
134.221386
 11
236.719341
 21
134.221386
  0
ARC
  8
1
 62
7
  6
CONTINUOUS
 10
232.719341
 20
130.221386
 40
4.000000
 50
90.000000
 51
180.000000
  0
LINE
  8
1
 62
7
  6
CONTINUOUS
 10
252.028862
 20
134.221386
 11
252.028862
 21
132.221386
  0
LINE
  8
1
 62
7
  6
CONTINUOUS
 10
252.028862
 20
132.221386
 11
252.935336
 21
132.221386
  0
LINE
  8
1
 62
7
  6
CONTINUOUS
 10
252.935336
 20
132.221386
 11
252.935336
 21
134.221386
  0
LINE
  8
1
 62
7
  6
CONTINUOUS
 10
252.935336
 20
134.221386
 11
252.028862
 21
134.221386
  0
ARC
  8
1
 62
7
  6
CONTINUOUS
 10
254.528963
 20
130.221386
 40
4.000000
 50
0.000000
 51
90.000000
  0
LINE
  8
1
 62
7
  6
CONTINUOUS
 10
250.528963
 20
134.221386
 11
254.528963
 21
134.221386
  0
ARC
  8
1
 62
7
  6
CONTINUOUS
 10
250.528963
 20
130.221386
 40
4.000000
 50
90.000000
 51
180.000000
  0
LINE
  8
1
 62
7
  6
CONTINUOUS
 10
173.528963
 20
130.221386
 11
187.528963
 21
130.221386
  0
LINE
  8
1
 62
7
  6
CONTINUOUS
 10
191.528963
 20
130.221386
 11
205.528963
 21
130.221386
  0
LINE
  8
1
 62
7
  6
CONTINUOUS
 10
209.528963
 20
130.221386
 11
223.528963
 21
130.221386
  0
LINE
  8
1
 62
7
  6
CONTINUOUS
 10
227.528963
 20
130.221386
 11
241.528963
 21
130.221386
  0
LINE
  8
1
 62
7
  6
CONTINUOUS
 10
245.528963
 20
130.221386
 11
259.528963
 21
130.221386
  0
LINE
  8
1
 62
7
  6
CONTINUOUS
 10
173.528963
 20
128.221386
 11
187.528963
 21
128.221386
  0
LINE
  8
1
 62
7
  6
CONTINUOUS
 10
191.528963
 20
128.221386
 11
205.528963
 21
128.221386
  0
LINE
  8
1
 62
7
  6
CONTINUOUS
 10
209.528963
 20
128.221386
 11
223.528963
 21
128.221386
  0
LINE
  8
1
 62
7
  6
CONTINUOUS
 10
227.528963
 20
128.221386
 11
241.528963
 21
128.221386
  0
LINE
  8
1
 62
7
  6
CONTINUOUS
 10
245.528963
 20
128.221386
 11
259.528963
 21
128.221386
  0
LINE
  8
1
 62
7
  6
CONTINUOUS
 10
173.528963
 20
119.221386
 11
187.528963
 21
119.221386
  0
LINE
  8
1
 62
7
  6
CONTINUOUS
 10
191.528963
 20
119.221386
 11
205.528963
 21
119.221386
  0
LINE
  8
1
 62
7
  6
CONTINUOUS
 10
209.528963
 20
119.221386
 11
223.528963
 21
119.221386
  0
LINE
  8
1
 62
7
  6
CONTINUOUS
 10
227.528963
 20
119.221386
 11
241.528963
 21
119.221386
  0
LINE
  8
1
 62
7
  6
CONTINUOUS
 10
245.528963
 20
119.221386
 11
259.528963
 21
119.221386
  0
LINE
  8
1
 62
7
  6
CONTINUOUS
 10
173.528963
 20
127.221386
 11
173.528963
 21
115.221386
  0
LINE
  8
1
 62
7
  6
CONTINUOUS
 10
173.528963
 20
115.221386
 11
187.528963
 21
115.221386
  0
LINE
  8
1
 62
7
  6
CONTINUOUS
 10
187.528963
 20
115.221386
 11
187.528963
 21
127.221386
  0
LINE
  8
1
 62
7
  6
CONTINUOUS
 10
187.528963
 20
127.221386
 11
173.528963
 21
127.221386
  0
LINE
  8
1
 62
7
  6
CONTINUOUS
 10
191.528963
 20
127.221386
 11
191.528963
 21
115.221386
  0
LINE
  8
1
 62
7
  6
CONTINUOUS
 10
191.528963
 20
115.221386
 11
205.528963
 21
115.221386
  0
LINE
  8
1
 62
7
  6
CONTINUOUS
 10
205.528963
 20
115.221386
 11
205.528963
 21
127.221386
  0
LINE
  8
1
 62
7
  6
CONTINUOUS
 10
205.528963
 20
127.221386
 11
191.528963
 21
127.221386
  0
LINE
  8
1
 62
7
  6
CONTINUOUS
 10
209.528963
 20
127.221386
 11
209.528963
 21
115.221386
  0
LINE
  8
1
 62
7
  6
CONTINUOUS
 10
209.528963
 20
115.221386
 11
223.528963
 21
115.221386
  0
LINE
  8
1
 62
7
  6
CONTINUOUS
 10
223.528963
 20
115.221386
 11
223.528963
 21
127.221386
  0
LINE
  8
1
 62
7
  6
CONTINUOUS
 10
223.528963
 20
127.221386
 11
209.528963
 21
127.221386
  0
LINE
  8
1
 62
7
  6
CONTINUOUS
 10
227.528963
 20
127.221386
 11
227.528963
 21
115.221386
  0
LINE
  8
1
 62
7
  6
CONTINUOUS
 10
227.528963
 20
115.221386
 11
241.528963
 21
115.221386
  0
LINE
  8
1
 62
7
  6
CONTINUOUS
 10
241.528963
 20
115.221386
 11
241.528963
 21
127.221386
  0
LINE
  8
1
 62
7
  6
CONTINUOUS
 10
241.528963
 20
127.221386
 11
227.528963
 21
127.221386
  0
LINE
  8
1
 62
7
  6
CONTINUOUS
 10
245.528963
 20
127.221386
 11
245.528963
 21
115.221386
  0
LINE
  8
1
 62
7
  6
CONTINUOUS
 10
245.528963
 20
115.221386
 11
259.528963
 21
115.221386
  0
LINE
  8
1
 62
7
  6
CONTINUOUS
 10
259.528963
 20
115.221386
 11
259.528963
 21
127.221386
  0
LINE
  8
1
 62
7
  6
CONTINUOUS
 10
259.528963
 20
127.221386
 11
245.528963
 21
127.221386
  0
LINE
  8
1
 62
7
  6
CONTINUOUS
 10
167.528963
 20
77.221386
 11
263.528963
 21
77.221386
  0
LINE
  8
1
 62
7
  6
CONTINUOUS
 10
263.528963
 20
77.221386
 11
167.528963
 21
77.221386
  0
LINE
  8
1
 62
7
  6
CONTINUOUS
 10
167.528963
 20
87.221386
 11
263.528963
 21
87.221386
  0
LINE
  8
1
 62
7
  6
CONTINUOUS
 10
263.528963
 20
93.221386
 11
167.528963
 21
93.221386
  0
LINE
  8
1
 62
7
  6
CONTINUOUS
 10
167.528963
 20
103.221386
 11
263.528963
 21
103.221386
  0
ARC
  8
1
 62
7
  6
CONTINUOUS
 10
224.488485
 20
260.221386
 40
1.000000
 50
-90.000000
 51
0.000000
  0
LINE
  8
1
 62
7
  6
CONTINUOUS
 10
208.292276
 20
259.221386
 11
224.488485
 21
259.221386
  0
LINE
  8
1
 62
7
  6
CONTINUOUS
 10
225.488485
 20
260.221386
 11
225.488485
 21
273.221386
  0
ARC
  8
1
 62
7
  6
CONTINUOUS
 10
208.292276
 20
260.221386
 40
1.000000
 50
180.000000
 51
-90.000000
  0
LINE
  8
1
 62
7
  6
CONTINUOUS
 10
207.292276
 20
273.221386
 11
207.292276
 21
260.221386
  0
TEXT
  8
1
 62
7
  6
CONTINUOUS
 10
246.917796
 20
387.354372
 40
4.000000
 41
1.000000
  1
出力
  7
KANJI
 50
0.000000
 51
0.000000
  0
CIRCLE
  8
1
 62
7
  6
CONTINUOUS
 10
250.479200
 20
394.640562
 40
3.007964
  0
TEXT
  8
1
 62
7
  6
CONTINUOUS
 10
238.189646
 20
370.823922
 40
4.000000
 41
1.000000
  1
自動
  7
KANJI
 50
0.000000
 51
0.000000
  0
TEXT
  8
1
 62
7
  6
CONTINUOUS
 10
242.394084
 20
364.921537
 40
4.000000
 41
1.000000
  1
切
  7
KANJI
 50
0.000000
 51
0.000000
  0
TEXT
  8
1
 62
7
  6
CONTINUOUS
 10
242.394084
 20
377.696562
 40
4.000000
 41
1.000000
  1
入
  7
KANJI
 50
0.000000
 51
0.000000
  0
LINE
  8
1
 62
7
  6
CONTINUOUS
 10
247.528963
 20
373.725829
 11
247.528963
 21
372.836428
  0
LINE
  8
1
 62
7
  6
CONTINUOUS
 10
247.528963
 20
372.836428
 11
253.528963
 21
372.836428
  0
LINE
  8
1
 62
7
  6
CONTINUOUS
 10
253.528963
 20
372.836428
 11
253.528963
 21
373.725829
  0
LINE
  8
1
 62
7
  6
CONTINUOUS
 10
253.528963
 20
373.725829
 11
247.528963
 21
373.725829
  0
LINE
  8
1
 62
7
  6
CONTINUOUS
 10
247.528963
 20
376.777575
 11
247.528963
 21
369.764982
  0
LINE
  8
1
 62
7
  6
CONTINUOUS
 10
247.528963
 20
369.764982
 11
253.528963
 21
369.764982
  0
LINE
  8
1
 62
7
  6
CONTINUOUS
 10
253.528963
 20
369.764982
 11
253.528963
 21
376.777575
  0
LINE
  8
1
 62
7
  6
CONTINUOUS
 10
253.528963
 20
376.777575
 11
247.528963
 21
376.777575
  0
LINE
  8
1
 62
7
  6
CONTINUOUS
 10
247.528963
 20
381.278195
 11
247.528963
 21
364.008376
  0
LINE
  8
1
 62
7
  6
CONTINUOUS
 10
247.528963
 20
364.008376
 11
253.528963
 21
364.008376
  0
LINE
  8
1
 62
7
  6
CONTINUOUS
 10
253.528963
 20
364.008376
 11
253.528963
 21
381.278195
  0
LINE
  8
1
 62
7
  6
CONTINUOUS
 10
253.528963
 20
381.278195
 11
247.528963
 21
381.278195
  0
ARC
  8
1
 62
7
  6
CONTINUOUS
 10
175.928963
 20
361.621386
 40
0.400000
 50
180.000000
 51
-90.000000
  0
LINE
  8
1
 62
7
  6
CONTINUOUS
 10
229.128963
 20
361.221386
 11
175.928963
 21
361.221386
  0
ARC
  8
1
 62
7
  6
CONTINUOUS
 10
229.128963
 20
361.621386
 40
0.400000
 50
-90.000000
 51
0.000000
  0
LINE
  8
1
 62
7
  6
CONTINUOUS
 10
229.528963
 20
394.821386
 11
229.528963
 21
361.621386
  0
ARC
  8
1
 62
7
  6
CONTINUOUS
 10
229.128963
 20
394.821386
 40
0.400000
 50
0.000000
 51
90.000000
  0
LINE
  8
1
 62
7
  6
CONTINUOUS
 10
175.928963
 20
395.221386
 11
229.128963
 21
395.221386
  0
LINE
  8
1
 62
7
  6
CONTINUOUS
 10
175.528963
 20
361.621386
 11
175.528963
 21
394.821386
  0
ARC
  8
1
 62
7
  6
CONTINUOUS
 10
175.928963
 20
394.821386
 40
0.400000
 50
90.000000
 51
180.000000
  0
TEXT
  8
1
 62
7
  6
CONTINUOUS
 10
240.007426
 20
341.440187
 40
4.000000
 41
1.000000
  1
リセット
  7
KANJI
 50
0.000000
 51
0.000000
  0
TEXT
  8
1
 62
7
  6
CONTINUOUS
 10
222.452666
 20
341.440187
 40
4.000000
 41
0.600000
  1
+1h
  7
KANJI
 50
0.000000
 51
0.000000
  0
CIRCLE
  8
1
 62
7
  6
CONTINUOUS
 10
247.998767
 20
337.986438
 40
1.659581
  0
CIRCLE
  8
1
 62
7
  6
CONTINUOUS
 10
248.112748
 20
337.986438
 40
2.786115
  0
CIRCLE
  8
1
 62
7
  6
CONTINUOUS
 10
225.658589
 20
337.986438
 40
1.659581
  0
CIRCLE
  8
1
 62
7
  6
CONTINUOUS
 10
225.772570
 20
337.986438
 40
2.786115
  0
TEXT
  8
1
 62
7
  6
CONTINUOUS
 10
200.452666
 20
341.440187
 40
4.000000
 41
1.000000
  1
取消
  7
KANJI
 50
0.000000
 51
0.000000
  0
TEXT
  8
1
 62
7
  6
CONTINUOUS
 10
178.452666
 20
341.440187
 40
4.000000
 41
1.000000
  1
呼出
  7
KANJI
 50
0.000000
 51
0.000000
  0
TEXT
  8
1
 62
7
  6
CONTINUOUS
 10
223.763441
 20
329.440187
 40
4.000000
 41
1.000000
  1
分
  7
KANJI
 50
0.000000
 51
0.000000
  0
TEXT
  8
1
 62
7
  6
CONTINUOUS
 10
201.364510
 20
329.440187
 40
4.000000
 41
1.000000
  1
時
  7
KANJI
 50
0.000000
 51
0.000000
  0
TEXT
  8
1
 62
7
  6
CONTINUOUS
 10
244.452666
 20
329.440187
 40
4.000000
 41
1.000000
  1
設定
  7
KANJI
 50
0.000000
 51
0.000000
  0
ARC
  8
1
 62
7
  6
CONTINUOUS
 10
197.928963
 20
340.821386
 40
0.400000
 50
90.000000
 51
180.000000
  0
LINE
  8
1
 62
7
  6
CONTINUOUS
 10
197.528963
 20
340.821386
 11
197.528963
 21
335.621386
  0
ARC
  8
1
 62
7
  6
CONTINUOUS
 10
197.928963
 20
335.621386
 40
0.400000
 50
180.000000
 51
-90.000000
  0
LINE
  8
1
 62
7
  6
CONTINUOUS
 10
197.928963
 20
335.221386
 11
211.128963
 21
335.221386
  0
ARC
  8
1
 62
7
  6
CONTINUOUS
 10
211.128963
 20
335.621386
 40
0.400000
 50
-90.000000
 51
0.000000
  0
LINE
  8
1
 62
7
  6
CONTINUOUS
 10
211.528963
 20
335.621386
 11
211.528963
 21
340.821386
  0
LINE
  8
1
 62
7
  6
CONTINUOUS
 10
211.128963
 20
341.221386
 11
197.928963
 21
341.221386
  0
ARC
  8
1
 62
7
  6
CONTINUOUS
 10
211.128963
 20
340.821386
 40
0.400000
 50
0.000000
 51
90.000000
  0
ARC
  8
1
 62
7
  6
CONTINUOUS
 10
175.928963
 20
340.821386
 40
0.400000
 50
90.000000
 51
180.000000
  0
LINE
  8
1
 62
7
  6
CONTINUOUS
 10
175.528963
 20
340.821386
 11
175.528963
 21
335.621386
  0
ARC
  8
1
 62
7
  6
CONTINUOUS
 10
175.928963
 20
335.621386
 40
0.400000
 50
180.000000
 51
-90.000000
  0
LINE
  8
1
 62
7
  6
CONTINUOUS
 10
175.928963
 20
335.221386
 11
189.128963
 21
335.221386
  0
ARC
  8
1
 62
7
  6
CONTINUOUS
 10
189.128963
 20
335.621386
 40
0.400000
 50
-90.000000
 51
0.000000
  0
LINE
  8
1
 62
7
  6
CONTINUOUS
 10
189.528963
 20
335.621386
 11
189.528963
 21
340.821386
  0
LINE
  8
1
 62
7
  6
CONTINUOUS
 10
189.128963
 20
341.221386
 11
175.928963
 21
341.221386
  0
ARC
  8
1
 62
7
  6
CONTINUOUS
 10
189.128963
 20
340.821386
 40
0.400000
 50
0.000000
 51
90.000000
  0
ARC
  8
1
 62
7
  6
CONTINUOUS
 10
241.928963
 20
328.821386
 40
0.400000
 50
90.000000
 51
180.000000
  0
LINE
  8
1
 62
7
  6
CONTINUOUS
 10
241.528963
 20
328.821386
 11
241.528963
 21
323.621386
  0
ARC
  8
1
 62
7
  6
CONTINUOUS
 10
241.928963
 20
323.621386
 40
0.400000
 50
180.000000
 51
-90.000000
  0
LINE
  8
1
 62
7
  6
CONTINUOUS
 10
241.928963
 20
323.221386
 11
255.128963
 21
323.221386
  0
ARC
  8
1
 62
7
  6
CONTINUOUS
 10
255.128963
 20
323.621386
 40
0.400000
 50
-90.000000
 51
0.000000
  0
LINE
  8
1
 62
7
  6
CONTINUOUS
 10
255.528963
 20
323.621386
 11
255.528963
 21
328.821386
  0
LINE
  8
1
 62
7
  6
CONTINUOUS
 10
255.128963
 20
329.221386
 11
241.928963
 21
329.221386
  0
ARC
  8
1
 62
7
  6
CONTINUOUS
 10
255.128963
 20
328.821386
 40
0.400000
 50
0.000000
 51
90.000000
  0
ARC
  8
1
 62
7
  6
CONTINUOUS
 10
219.928963
 20
328.821386
 40
0.400000
 50
90.000000
 51
180.000000
  0
LINE
  8
1
 62
7
  6
CONTINUOUS
 10
219.528963
 20
328.821386
 11
219.528963
 21
323.621386
  0
ARC
  8
1
 62
7
  6
CONTINUOUS
 10
219.928963
 20
323.621386
 40
0.400000
 50
180.000000
 51
-90.000000
  0
LINE
  8
1
 62
7
  6
CONTINUOUS
 10
219.928963
 20
323.221386
 11
233.128963
 21
323.221386
  0
ARC
  8
1
 62
7
  6
CONTINUOUS
 10
233.128963
 20
323.621386
 40
0.400000
 50
-90.000000
 51
0.000000
  0
LINE
  8
1
 62
7
  6
CONTINUOUS
 10
233.528963
 20
323.621386
 11
233.528963
 21
328.821386
  0
LINE
  8
1
 62
7
  6
CONTINUOUS
 10
233.128963
 20
329.221386
 11
219.928963
 21
329.221386
  0
ARC
  8
1
 62
7
  6
CONTINUOUS
 10
233.128963
 20
328.821386
 40
0.400000
 50
0.000000
 51
90.000000
  0
ARC
  8
1
 62
7
  6
CONTINUOUS
 10
197.928963
 20
328.821386
 40
0.400000
 50
90.000000
 51
180.000000
  0
LINE
  8
1
 62
7
  6
CONTINUOUS
 10
197.528963
 20
328.821386
 11
197.528963
 21
323.621386
  0
ARC
  8
1
 62
7
  6
CONTINUOUS
 10
197.928963
 20
323.621386
 40
0.400000
 50
180.000000
 51
-90.000000
  0
LINE
  8
1
 62
7
  6
CONTINUOUS
 10
197.928963
 20
323.221386
 11
211.128963
 21
323.221386
  0
ARC
  8
1
 62
7
  6
CONTINUOUS
 10
211.128963
 20
323.621386
 40
0.400000
 50
-90.000000
 51
0.000000
  0
LINE
  8
1
 62
7
  6
CONTINUOUS
 10
211.528963
 20
323.621386
 11
211.528963
 21
328.821386
  0
LINE
  8
1
 62
7
  6
CONTINUOUS
 10
211.128963
 20
329.221386
 11
197.928963
 21
329.221386
  0
ARC
  8
1
 62
7
  6
CONTINUOUS
 10
211.128963
 20
328.821386
 40
0.400000
 50
0.000000
 51
90.000000
  0
TEXT
  8
1
 62
7
  6
CONTINUOUS
 10
178.452666
 20
329.440187
 40
4.000000
 41
0.600000
  1
ﾓｰﾄﾞ
  7
KANJI
 50
0.000000
 51
0.000000
  0
ARC
  8
1
 62
7
  6
CONTINUOUS
 10
175.928963
 20
328.821386
 40
0.400000
 50
90.000000
 51
180.000000
  0
LINE
  8
1
 62
7
  6
CONTINUOUS
 10
175.528963
 20
328.821386
 11
175.528963
 21
323.621386
  0
ARC
  8
1
 62
7
  6
CONTINUOUS
 10
175.928963
 20
323.621386
 40
0.400000
 50
180.000000
 51
-90.000000
  0
LINE
  8
1
 62
7
  6
CONTINUOUS
 10
175.928963
 20
323.221386
 11
189.128963
 21
323.221386
  0
ARC
  8
1
 62
7
  6
CONTINUOUS
 10
189.128963
 20
323.621386
 40
0.400000
 50
-90.000000
 51
0.000000
  0
LINE
  8
1
 62
7
  6
CONTINUOUS
 10
189.528963
 20
323.621386
 11
189.528963
 21
328.821386
  0
LINE
  8
1
 62
7
  6
CONTINUOUS
 10
189.128963
 20
329.221386
 11
175.928963
 21
329.221386
  0
ARC
  8
1
 62
7
  6
CONTINUOUS
 10
189.128963
 20
328.821386
 40
0.400000
 50
0.000000
 51
90.000000
  0
CIRCLE
  8
1
 62
7
  6
CONTINUOUS
 10
215.528963
 20
450.221386
 40
2.597931
  0
CIRCLE
  8
1
 62
7
  6
CONTINUOUS
 10
215.528963
 20
450.221386
 40
4.300000
  0
LINE
  8
1
 62
7
  6
CONTINUOUS
 10
165.528963
 20
439.221386
 11
265.528963
 21
439.221386
  0
TEXT
  8
1
 62
7
  6
CONTINUOUS
 10
249.421580
 20
299.189093
 40
6.000000
 41
0.566666
  1
NC
  7
KANJI
 50
0.000000
 51
0.000000
  0
TEXT
  8
1
 62
7
  6
CONTINUOUS
 10
231.421580
 20
299.189093
 40
6.000000
 41
0.566666
  1
NO
  7
KANJI
 50
0.000000
 51
0.000000
  0
TEXT
  8
1
 62
7
  6
CONTINUOUS
 10
213.421580
 20
299.189093
 40
6.000000
 41
0.566666
  1
COM
  7
KANJI
 50
0.000000
 51
0.000000
  0
TEXT
  8
1
 62
7
  6
CONTINUOUS
 10
195.421580
 20
299.189093
 40
6.000000
 41
0.566666
  1
S1
  7
KANJI
 50
0.000000
 51
0.000000
  0
TEXT
  8
1
 62
7
  6
CONTINUOUS
 10
177.421580
 20
299.189093
 40
6.000000
 41
0.566666
  1
S1
  7
KANJI
 50
0.000000
 51
0.000000
  0
CIRCLE
  8
1
 62
7
  6
CONTINUOUS
 10
171.860223
 20
308.902780
 40
0.711396
  0
CIRCLE
  8
1
 62
7
  6
CONTINUOUS
 10
172.111740
 20
309.154296
 40
2.943926
  0
LINE
  8
1
 62
7
  6
CONTINUOUS
 10
207.528963
 20
315.221386
 11
165.528963
 21
315.221386
  0
LINE
  8
1
 62
7
  6
CONTINUOUS
 10
169.528963
 20
413.199825
 11
169.528963
 21
319.221386
  0
LINE
  8
1
 62
7
  6
CONTINUOUS
 10
169.528963
 20
319.221386
 11
261.528963
 21
319.221386
  0
LINE
  8
1
 62
7
  6
CONTINUOUS
 10
261.528963
 20
319.221386
 11
261.528963
 21
413.199825
  0
LINE
  8
1
 62
7
  6
CONTINUOUS
 10
261.528963
 20
413.199825
 11
169.528963
 21
413.199825
  0
LINE
  8
1
 62
7
  6
CONTINUOUS
 10
165.528963
 20
415.199825
 11
265.528963
 21
415.199825
  0
LINE
  8
1
 62
7
  6
CONTINUOUS
 10
250.555467
 20
289.795626
 11
250.555467
 21
288.830581
  0
LINE
  8
1
 62
7
  6
CONTINUOUS
 10
254.527000
 20
288.830581
 11
254.527000
 21
289.795626
  0
LINE
  8
1
 62
7
  6
CONTINUOUS
 10
254.527000
 20
289.795626
 11
252.935336
 21
289.795626
  0
LINE
  8
1
 62
7
  6
CONTINUOUS
 10
250.555467
 20
288.830581
 11
252.028862
 21
288.830581
  0
LINE
  8
1
 62
7
  6
CONTINUOUS
 10
252.922702
 20
288.830581
 11
254.527000
 21
288.830581
  0
LINE
  8
1
 62
7
  6
CONTINUOUS
 10
252.028862
 20
289.795626
 11
250.555467
 21
289.795626
  0
LINE
  8
1
 62
7
  6
CONTINUOUS
 10
252.028862
 20
283.218833
 11
252.935336
 21
283.218833
  0
LINE
  8
1
 62
7
  6
CONTINUOUS
 10
252.935336
 20
295.181661
 11
252.028862
 21
295.181661
  0
LINE
  8
1
 62
7
  6
CONTINUOUS
 10
252.028862
 20
295.181661
 11
252.028862
 21
289.795626
  0
LINE
  8
1
 62
7
  6
CONTINUOUS
 10
252.028862
 20
288.830581
 11
252.028862
 21
283.218833
  0
LINE
  8
1
 62
7
  6
CONTINUOUS
 10
252.935336
 20
283.218833
 11
252.935336
 21
288.830581
  0
LINE
  8
1
 62
7
  6
CONTINUOUS
 10
252.935336
 20
289.795626
 11
252.935336
 21
295.181661
  0
LINE
  8
1
 62
7
  6
CONTINUOUS
 10
232.586955
 20
289.822606
 11
232.586955
 21
288.857560
  0
LINE
  8
1
 62
7
  6
CONTINUOUS
 10
236.558489
 20
288.857560
 11
236.558489
 21
289.822606
  0
LINE
  8
1
 62
7
  6
CONTINUOUS
 10
236.558489
 20
289.822606
 11
234.966824
 21
289.822606
  0
LINE
  8
1
 62
7
  6
CONTINUOUS
 10
232.586955
 20
288.857560
 11
234.060350
 21
288.857560
  0
LINE
  8
1
 62
7
  6
CONTINUOUS
 10
234.954190
 20
288.857560
 11
236.558489
 21
288.857560
  0
LINE
  8
1
 62
7
  6
CONTINUOUS
 10
234.060350
 20
289.822606
 11
232.586955
 21
289.822606
  0
LINE
  8
1
 62
7
  6
CONTINUOUS
 10
234.060350
 20
283.245813
 11
234.966824
 21
283.245813
  0
LINE
  8
1
 62
7
  6
CONTINUOUS
 10
234.966824
 20
295.208641
 11
234.060350
 21
295.208641
  0
LINE
  8
1
 62
7
  6
CONTINUOUS
 10
234.060350
 20
295.208641
 11
234.060350
 21
289.822606
  0
LINE
  8
1
 62
7
  6
CONTINUOUS
 10
234.060350
 20
288.857560
 11
234.060350
 21
283.245813
  0
LINE
  8
1
 62
7
  6
CONTINUOUS
 10
234.966824
 20
283.245813
 11
234.966824
 21
288.857560
  0
LINE
  8
1
 62
7
  6
CONTINUOUS
 10
234.966824
 20
289.822606
 11
234.966824
 21
295.208641
  0
LINE
  8
1
 62
7
  6
CONTINUOUS
 10
214.537504
 20
289.795626
 11
214.537504
 21
288.830581
  0
LINE
  8
1
 62
7
  6
CONTINUOUS
 10
218.509038
 20
288.830581
 11
218.509038
 21
289.795626
  0
LINE
  8
1
 62
7
  6
CONTINUOUS
 10
218.509038
 20
289.795626
 11
216.917373
 21
289.795626
  0
LINE
  8
1
 62
7
  6
CONTINUOUS
 10
214.537504
 20
288.830581
 11
216.010899
 21
288.830581
  0
LINE
  8
1
 62
7
  6
CONTINUOUS
 10
216.904739
 20
288.830581
 11
218.509038
 21
288.830581
  0
LINE
  8
1
 62
7
  6
CONTINUOUS
 10
216.010899
 20
289.795626
 11
214.537504
 21
289.795626
  0
LINE
  8
1
 62
7
  6
CONTINUOUS
 10
216.010899
 20
283.218833
 11
216.917373
 21
283.218833
  0
LINE
  8
1
 62
7
  6
CONTINUOUS
 10
216.917373
 20
295.181661
 11
216.010899
 21
295.181661
  0
LINE
  8
1
 62
7
  6
CONTINUOUS
 10
216.010899
 20
295.181661
 11
216.010899
 21
289.795626
  0
LINE
  8
1
 62
7
  6
CONTINUOUS
 10
216.010899
 20
288.830581
 11
216.010899
 21
283.218833
  0
LINE
  8
1
 62
7
  6
CONTINUOUS
 10
216.917373
 20
283.218833
 11
216.917373
 21
288.830581
  0
LINE
  8
1
 62
7
  6
CONTINUOUS
 10
216.917373
 20
289.795626
 11
216.917373
 21
295.181661
  0
LINE
  8
1
 62
7
  6
CONTINUOUS
 10
196.595972
 20
289.795626
 11
196.595972
 21
288.830581
  0
LINE
  8
1
 62
7
  6
CONTINUOUS
 10
200.567505
 20
288.830581
 11
200.567505
 21
289.795626
  0
LINE
  8
1
 62
7
  6
CONTINUOUS
 10
200.567505
 20
289.795626
 11
198.975841
 21
289.795626
  0
LINE
  8
1
 62
7
  6
CONTINUOUS
 10
196.595972
 20
288.830581
 11
198.069367
 21
288.830581
  0
LINE
  8
1
 62
7
  6
CONTINUOUS
 10
198.963207
 20
288.830581
 11
200.567505
 21
288.830581
  0
LINE
  8
1
 62
7
  6
CONTINUOUS
 10
198.069367
 20
289.795626
 11
196.595972
 21
289.795626
  0
LINE
  8
1
 62
7
  6
CONTINUOUS
 10
198.069367
 20
283.218833
 11
198.975841
 21
283.218833
  0
LINE
  8
1
 62
7
  6
CONTINUOUS
 10
198.975841
 20
295.181661
 11
198.069367
 21
295.181661
  0
LINE
  8
1
 62
7
  6
CONTINUOUS
 10
198.069367
 20
295.181661
 11
198.069367
 21
289.795626
  0
LINE
  8
1
 62
7
  6
CONTINUOUS
 10
198.069367
 20
288.830581
 11
198.069367
 21
283.218833
  0
LINE
  8
1
 62
7
  6
CONTINUOUS
 10
198.975841
 20
283.218833
 11
198.975841
 21
288.830581
  0
LINE
  8
1
 62
7
  6
CONTINUOUS
 10
198.975841
 20
289.795626
 11
198.975841
 21
295.181661
  0
LINE
  8
1
 62
7
  6
CONTINUOUS
 10
178.627460
 20
289.822606
 11
178.627460
 21
288.857560
  0
LINE
  8
1
 62
7
  6
CONTINUOUS
 10
182.598994
 20
288.857560
 11
182.598994
 21
289.822606
  0
LINE
  8
1
 62
7
  6
CONTINUOUS
 10
182.598994
 20
289.822606
 11
181.007329
 21
289.822606
  0
LINE
  8
1
 62
7
  6
CONTINUOUS
 10
178.627460
 20
288.857560
 11
180.100855
 21
288.857560
  0
LINE
  8
1
 62
7
  6
CONTINUOUS
 10
180.994695
 20
288.857560
 11
182.598994
 21
288.857560
  0
LINE
  8
1
 62
7
  6
CONTINUOUS
 10
180.100855
 20
289.822606
 11
178.627460
 21
289.822606
  0
LINE
  8
1
 62
7
  6
CONTINUOUS
 10
180.100855
 20
283.245813
 11
181.007329
 21
283.245813
  0
LINE
  8
1
 62
7
  6
CONTINUOUS
 10
181.007329
 20
295.208641
 11
180.100855
 21
295.208641
  0
LINE
  8
1
 62
7
  6
CONTINUOUS
 10
180.100855
 20
295.208641
 11
180.100855
 21
289.822606
  0
LINE
  8
1
 62
7
  6
CONTINUOUS
 10
180.100855
 20
288.857560
 11
180.100855
 21
283.245813
  0
LINE
  8
1
 62
7
  6
CONTINUOUS
 10
181.007329
 20
283.245813
 11
181.007329
 21
288.857560
  0
LINE
  8
1
 62
7
  6
CONTINUOUS
 10
181.007329
 20
289.822606
 11
181.007329
 21
295.208641
  0
LINE
  8
1
 62
7
  6
CONTINUOUS
 10
217.528963
 20
315.221386
 11
207.528963
 21
315.221386
  0
LINE
  8
1
 62
7
  6
CONTINUOUS
 10
241.528963
 20
315.221386
 11
231.528963
 21
315.221386
  0
LINE
  8
1
 62
7
  6
CONTINUOUS
 10
231.528963
 20
315.221386
 11
217.528963
 21
315.221386
  0
LINE
  8
1
 62
7
  6
CONTINUOUS
 10
265.528963
 20
315.221386
 11
255.528963
 21
315.221386
  0
LINE
  8
1
 62
7
  6
CONTINUOUS
 10
255.528963
 20
315.221386
 11
241.528963
 21
315.221386
  0
LINE
  8
1
 62
7
  6
CONTINUOUS
 10
241.528963
 20
298.221386
 11
255.528963
 21
298.221386
  0
LINE
  8
1
 62
7
  6
CONTINUOUS
 10
259.528963
 20
273.221386
 11
259.528963
 21
298.221386
  0
LINE
  8
1
 62
7
  6
CONTINUOUS
 10
245.528963
 20
298.221386
 11
245.528963
 21
273.221386
  0
LINE
  8
1
 62
7
  6
CONTINUOUS
 10
245.528963
 20
273.221386
 11
259.528963
 21
273.221386
  0
LINE
  8
1
 62
7
  6
CONTINUOUS
 10
223.528963
 20
298.221386
 11
223.528963
 21
289.221386
  0
LINE
  8
1
 62
7
  6
CONTINUOUS
 10
209.528963
 20
298.221386
 11
209.528963
 21
273.221386
  0
LINE
  8
1
 62
7
  6
CONTINUOUS
 10
209.528963
 20
273.221386
 11
223.528963
 21
273.221386
  0
LINE
  8
1
 62
7
  6
CONTINUOUS
 10
263.528963
 20
273.221386
 11
167.528963
 21
273.221386
  0
LINE
  8
1
 62
7
  6
CONTINUOUS
 10
165.528963
 20
298.221386
 11
165.528963
 21
471.221386
  0
LINE
  8
1
 62
7
  6
CONTINUOUS
 10
265.528963
 20
471.221386
 11
265.528963
 21
296.221386
  0
LINE
  8
1
 62
7
  6
CONTINUOUS
 10
167.528963
 20
298.221386
 11
167.528963
 21
273.221386
  0
LINE
  8
1
 62
7
  6
CONTINUOUS
 10
173.528963
 20
273.221386
 11
173.528963
 21
289.221386
  0
LINE
  8
1
 62
7
  6
CONTINUOUS
 10
167.528963
 20
273.221386
 11
173.528963
 21
273.221386
  0
LINE
  8
1
 62
7
  6
CONTINUOUS
 10
173.528963
 20
298.221386
 11
173.528963
 21
273.221386
  0
LINE
  8
1
 62
7
  6
CONTINUOUS
 10
187.528963
 20
273.221386
 11
187.528963
 21
298.221386
  0
LINE
  8
1
 62
7
  6
CONTINUOUS
 10
173.528963
 20
273.221386
 11
187.528963
 21
273.221386
  0
LINE
  8
1
 62
7
  6
CONTINUOUS
 10
191.528963
 20
298.221386
 11
191.528963
 21
273.221386
  0
LINE
  8
1
 62
7
  6
CONTINUOUS
 10
205.528963
 20
273.221386
 11
205.528963
 21
298.221386
  0
LINE
  8
1
 62
7
  6
CONTINUOUS
 10
191.528963
 20
273.221386
 11
205.528963
 21
273.221386
  0
LINE
  8
1
 62
7
  6
CONTINUOUS
 10
227.528963
 20
298.221386
 11
227.528963
 21
273.221386
  0
LINE
  8
1
 62
7
  6
CONTINUOUS
 10
241.528963
 20
273.221386
 11
241.528963
 21
298.221386
  0
LINE
  8
1
 62
7
  6
CONTINUOUS
 10
227.528963
 20
273.221386
 11
241.528963
 21
273.221386
  0
LINE
  8
1
 62
7
  6
CONTINUOUS
 10
263.528963
 20
273.221386
 11
263.528963
 21
296.221386
  0
LINE
  8
1
 62
7
  6
CONTINUOUS
 10
259.528963
 20
273.221386
 11
263.528963
 21
273.221386
  0
LINE
  8
1
 62
7
  6
CONTINUOUS
 10
259.528963
 20
289.221386
 11
259.528963
 21
273.221386
  0
LINE
  8
1
 62
7
  6
CONTINUOUS
 10
191.528963
 20
273.221386
 11
191.528963
 21
289.221386
  0
LINE
  8
1
 62
7
  6
CONTINUOUS
 10
187.528963
 20
273.221386
 11
191.528963
 21
273.221386
  0
LINE
  8
1
 62
7
  6
CONTINUOUS
 10
187.528963
 20
289.221386
 11
187.528963
 21
273.221386
  0
LINE
  8
1
 62
7
  6
CONTINUOUS
 10
209.528963
 20
273.221386
 11
209.528963
 21
289.221386
  0
LINE
  8
1
 62
7
  6
CONTINUOUS
 10
205.528963
 20
273.221386
 11
209.528963
 21
273.221386
  0
LINE
  8
1
 62
7
  6
CONTINUOUS
 10
205.528963
 20
289.221386
 11
205.528963
 21
273.221386
  0
LINE
  8
1
 62
7
  6
CONTINUOUS
 10
227.528963
 20
273.221386
 11
227.528963
 21
289.221386
  0
LINE
  8
1
 62
7
  6
CONTINUOUS
 10
223.528963
 20
273.221386
 11
227.528963
 21
273.221386
  0
LINE
  8
1
 62
7
  6
CONTINUOUS
 10
223.528963
 20
289.221386
 11
223.528963
 21
273.221386
  0
LINE
  8
1
 62
7
  6
CONTINUOUS
 10
245.528963
 20
273.221386
 11
245.528963
 21
289.221386
  0
LINE
  8
1
 62
7
  6
CONTINUOUS
 10
241.528963
 20
273.221386
 11
245.528963
 21
273.221386
  0
LINE
  8
1
 62
7
  6
CONTINUOUS
 10
241.528963
 20
289.221386
 11
241.528963
 21
273.221386
  0
LINE
  8
1
 62
7
  6
CONTINUOUS
 10
173.528963
 20
283.221386
 11
187.528963
 21
283.221386
  0
LINE
  8
1
 62
7
  6
CONTINUOUS
 10
187.528963
 20
281.221386
 11
173.528963
 21
281.221386
  0
LINE
  8
1
 62
7
  6
CONTINUOUS
 10
173.528963
 20
279.221386
 11
187.528963
 21
279.221386
  0
LINE
  8
1
 62
7
  6
CONTINUOUS
 10
191.528963
 20
283.221386
 11
205.528963
 21
283.221386
  0
LINE
  8
1
 62
7
  6
CONTINUOUS
 10
205.528963
 20
281.221386
 11
191.528963
 21
281.221386
  0
LINE
  8
1
 62
7
  6
CONTINUOUS
 10
191.528963
 20
279.221386
 11
205.528963
 21
279.221386
  0
LINE
  8
1
 62
7
  6
CONTINUOUS
 10
209.528963
 20
283.221386
 11
223.528963
 21
283.221386
  0
LINE
  8
1
 62
7
  6
CONTINUOUS
 10
223.528963
 20
281.221386
 11
209.528963
 21
281.221386
  0
LINE
  8
1
 62
7
  6
CONTINUOUS
 10
209.528963
 20
279.221386
 11
223.528963
 21
279.221386
  0
LINE
  8
1
 62
7
  6
CONTINUOUS
 10
227.528963
 20
283.221386
 11
241.528963
 21
283.221386
  0
LINE
  8
1
 62
7
  6
CONTINUOUS
 10
241.528963
 20
281.221386
 11
227.528963
 21
281.221386
  0
LINE
  8
1
 62
7
  6
CONTINUOUS
 10
227.528963
 20
279.221386
 11
241.528963
 21
279.221386
  0
LINE
  8
1
 62
7
  6
CONTINUOUS
 10
265.528963
 20
296.221386
 11
259.528963
 21
296.221386
  0
LINE
  8
1
 62
7
  6
CONTINUOUS
 10
241.528963
 20
296.221386
 11
227.528963
 21
296.221386
  0
LINE
  8
1
 62
7
  6
CONTINUOUS
 10
187.528963
 20
296.221386
 11
173.528963
 21
296.221386
  0
LINE
  8
1
 62
7
  6
CONTINUOUS
 10
205.528963
 20
296.221386
 11
191.528963
 21
296.221386
  0
LINE
  8
1
 62
7
  6
CONTINUOUS
 10
223.528963
 20
296.221386
 11
209.528963
 21
296.221386
  0
LINE
  8
1
 62
7
  6
CONTINUOUS
 10
259.528963
 20
296.221386
 11
245.528963
 21
296.221386
  0
LINE
  8
1
 62
7
  6
CONTINUOUS
 10
265.528963
 20
298.221386
 11
165.528963
 21
298.221386
  0
CIRCLE
  8
1
 62
7
  6
CONTINUOUS
 10
180.528963
 20
289.221386
 40
6.000000
  0
CIRCLE
  8
1
 62
7
  6
CONTINUOUS
 10
198.528963
 20
289.221386
 40
6.000000
  0
CIRCLE
  8
1
 62
7
  6
CONTINUOUS
 10
216.528963
 20
289.221386
 40
6.000000
  0
CIRCLE
  8
1
 62
7
  6
CONTINUOUS
 10
234.528963
 20
289.221386
 40
6.000000
  0
CIRCLE
  8
1
 62
7
  6
CONTINUOUS
 10
252.528963
 20
289.221386
 40
6.000000
  0
LINE
  8
1
 62
7
  6
CONTINUOUS
 10
245.528963
 20
283.221386
 11
259.528963
 21
283.221386
  0
LINE
  8
1
 62
7
  6
CONTINUOUS
 10
259.528963
 20
281.221386
 11
245.528963
 21
281.221386
  0
LINE
  8
1
 62
7
  6
CONTINUOUS
 10
245.528963
 20
279.221386
 11
259.528963
 21
279.221386
  0
LINE
  8
1
 62
7
  6
CONTINUOUS
 10
181.287268
 20
65.221386
 11
203.528963
 21
65.221386
  0
CIRCLE
  8
1
 62
7
  6
CONTINUOUS
 10
250.442901
 20
404.014850
 40
3.007964
  0
TEXT
  8
1
 62
7
  6
CONTINUOUS
 10
238.677316
 20
401.998066
 40
4.000000
 41
1.000000
  1
電源
  7
KANJI
 50
0.000000
 51
0.000000
  0
TEXT
  8
15
 62
96
  6
CONTINUOUS
 10
625.843729
 20
69.030416
 40
6.001769
 41
0.833333
  1
１：１
  7
KANJI
 50
0.000000
 51
0.000000
  0
TEXT
  8
15
 62
96
  6
CONTINUOUS
 10
654.568681
 20
56.526660
 40
7.000000
 41
0.500000
  1
G13007-02-07905
  7
KANJI
 50
0.000000
 51
0.000000
  0
LINE
  8
15
 62
96
  6
CONTINUOUS
 10
800.227081
 20
500.138608
 11
620.173997
 21
500.138608
  0
TEXT
  8
15
 62
96
  6
CONTINUOUS
 10
786.668762
 20
491.869276
 40
6.001769
 41
0.833333
  1
１点
  7
KANJI
 50
0.000000
 51
0.000000
  0
LINE
  8
15
 62
96
  6
CONTINUOUS
 10
783.938934
 20
500.138517
 11
783.938934
 21
489.135273
  0
LINE
  8
1
 62
7
  6
CONTINUOUS
 10
145.496422
 20
450.211304
 11
145.496422
 21
266.189195
  0
LINE
  8
1
 62
7
  6
CONTINUOUS
 10
141.496422
 20
450.211304
 11
203.445080
 21
450.211304
  0
LINE
  8
1
 62
7
  6
CONTINUOUS
 10
141.496422
 20
266.189195
 11
204.304615
 21
266.189195
  0
LINE
  8
1
 62
7
  6
CONTINUOUS
 10
145.496422
 20
450.211304
 11
146.531698
 21
446.347600
  0
LINE
  8
1
 62
7
  6
CONTINUOUS
 10
145.496422
 20
450.211304
 11
144.461146
 21
446.347600
  0
LINE
  8
1
 62
7
  6
CONTINUOUS
 10
145.496422
 20
266.189195
 11
144.461146
 21
270.052898
  0
LINE
  8
1
 62
7
  6
CONTINUOUS
 10
145.496422
 20
266.189195
 11
146.531698
 21
270.052898
  0
TEXT
  8
1
 62
7
  6
CONTINUOUS
 10
145.496422
 20
355.000249
 40
6.000000
 41
0.566667
  1
92
  7
KANJI
 50
90.000000
 51
0.000000
  0
TEXT
  8
15
 62
96
  6
CONTINUOUS
 10
728.811045
 20
56.887915
 40
6.001769
 41
0.603448
  1
2007年09月05日
  7
KANJI
 50
0.000000
 51
0.000000
  0
TEXT
  8
15
 62
96
  6
CONTINUOUS
 10
729.206143
 20
436.619881
 40
6.001769
 41
0.833333
  1
１Ｗ
  7
KANJI
 50
0.000000
 51
0.000000
  0
TEXT
  8
15
 62
96
  6
CONTINUOUS
 10
724.704816
 20
447.623125
 40
6.001769
 41
0.564516
  1
AC100Ｖ
  7
KANJI
 50
0.000000
 51
0.000000
  0
TEXT
  8
15
 62
96
  6
DIVIDE
 10
702.198180
 20
502.639345
 40
6.001769
 41
0.785714
  1
リチウム電池（10年間）
  7
KANJI
 50
0.000000
 51
0.000000
  0
TEXT
  8
15
 62
96
  6
CONTINUOUS
 10
419.241028
 20
42.989504
 40
6.000000
 41
0.944444
  1
＊　記載されている会社名、製品名は、登録商標または商標です。
  7
KANJI
 50
0.000000
 51
0.000000
  0
TEXT
  8
15
 62
96
  6
CONTINUOUS
 10
703.422407
 20
491.636010
 40
6.001769
 41
0.833333
  1
無電圧ｃ接点連続
  7
KANJI
 50
0.000000
 51
0.000000
  0
TEXT
  8
15
 62
96
  6
DIVIDE
 10
676.754948
 20
458.626415
 40
6.001769
 41
0.722222
  1
30動作（１日最大ON－OFF　15セット可能）
  7
KANJI
 50
0.000000
 51
0.000000
  0
LINE
  8
15
 62
96
  6
CONTINUOUS
 10
620.176521
 20
434.119144
 11
800.229605
 21
434.119144
  0
TEXT
  8
15
 62
96
  6
CONTINUOUS
 10
679.131226
 20
87.887221
 40
10.002949
 41
0.900000
  1
２４Ｈタイマ
  7
KANJI
 50
0.000000
 51
0.000000
  0
LINE
  8
1
 62
7
  6
CONTINUOUS
 10
489.397450
 20
273.221386
 11
489.397450
 21
340.325023
  0
LINE
  8
1
 62
7
  6
CONTINUOUS
 10
489.397450
 20
471.221386
 11
489.397450
 21
456.221386
  0
LINE
  8
1
 62
7
  6
CONTINUOUS
 10
505.397450
 20
462.221386
 11
499.397450
 21
471.221386
  0
LINE
  8
1
 62
7
  6
CONTINUOUS
 10
505.397450
 20
282.221386
 11
499.397450
 21
273.221386
  0
LINE
  8
1
 62
7
  6
CONTINUOUS
 10
522.397450
 20
282.221386
 11
522.397450
 21
259.221386
  0
LINE
  8
1
 62
7
  6
CONTINUOUS
 10
527.397450
 20
283.221386
 11
527.397450
 21
259.221386
  0
LINE
  8
1
 62
7
  6
CONTINUOUS
 10
517.397450
 20
259.221386
 11
527.397450
 21
259.221386
  0
LINE
  8
1
 62
7
  6
CONTINUOUS
 10
517.397450
 20
282.221386
 11
517.397450
 21
259.221386
  0
LINE
  8
1
 62
7
  6
CONTINUOUS
 10
505.397450
 20
282.221386
 11
515.397450
 21
282.221386
  0
LINE
  8
1
 62
7
  6
CONTINUOUS
 10
510.396063
 20
340.325023
 11
510.396063
 21
456.221386
  0
LINE
  8
1
 62
7
  6
CONTINUOUS
 10
522.107659
 20
462.221386
 11
505.397450
 21
462.221386
  0
LINE
  8
1
 62
7
  6
CONTINUOUS
 10
515.397450
 20
409.603428
 11
515.397450
 21
282.221386
  0
LINE
  8
1
 62
7
  6
CONTINUOUS
 10
527.397450
 20
283.221386
 11
527.397450
 21
325.213942
  0
LINE
  8
1
 62
7
  6
CONTINUOUS
 10
515.397450
 20
462.221386
 11
515.397450
 21
402.221386
  0
LINE
  8
1
 62
7
  6
CONTINUOUS
 10
521.397450
 20
462.221386
 11
515.397450
 21
462.221386
  0
ARC
  8
1
 62
7
  6
CONTINUOUS
 10
521.397450
 20
456.221386
 40
6.000000
 50
0.000000
 51
90.000000
  0
LINE
  8
1
 62
7
  6
CONTINUOUS
 10
516.785420
 20
402.221386
 11
524.256408
 21
402.221386
  0
LINE
  8
1
 62
7
  6
CONTINUOUS
 10
527.397450
 20
410.994438
 11
527.397450
 21
456.221386
  0
ARC
  8
1
 62
7
  6
CONTINUOUS
 10
526.397450
 20
283.221386
 40
1.000000
 50
-90.000000
 51
0.000000
  0
LINE
  8
1
 62
7
  6
CONTINUOUS
 10
515.397450
 20
282.221386
 11
526.397450
 21
282.221386
  0
LINE
  8
1
 62
7
  6
CONTINUOUS
 10
518.423016
 20
332.221386
 11
515.397450
 21
325.213942
  0
LINE
  8
1
 62
7
  6
CONTINUOUS
 10
527.397450
 20
325.213942
 11
518.423016
 21
332.221386
  0
LINE
  8
1
 62
7
  6
CONTINUOUS
 10
527.397450
 20
325.213942
 11
515.397450
 21
325.213942
  0
LINE
  8
1
 62
7
  6
CONTINUOUS
 10
516.736661
 20
402.221386
 11
515.397450
 21
409.603428
  0
LINE
  8
1
 62
7
  6
CONTINUOUS
 10
524.256408
 20
402.221386
 11
516.736661
 21
402.221386
  0
LINE
  8
1
 62
7
  6
CONTINUOUS
 10
527.397450
 20
411.734821
 11
524.256408
 21
402.221386
  0
LINE
  8
1
 62
7
  6
CONTINUOUS
 10
515.397450
 20
411.734821
 11
527.397450
 21
411.734821
  0
LINE
  8
1
 62
7
  6
CONTINUOUS
 10
499.397450
 20
273.221386
 11
443.397450
 21
273.221386
  0
LINE
  8
1
 62
7
  6
CONTINUOUS
 10
459.969007
 20
340.325023
 11
510.396063
 21
340.325023
  0
LINE
  8
1
 62
7
  6
CONTINUOUS
 10
510.396063
 20
456.221386
 11
429.596996
 21
456.221386
  0
LINE
  8
1
 62
7
  6
CONTINUOUS
 10
445.397450
 20
296.221386
 11
515.397450
 21
296.221386
  0
LINE
  8
1
 62
7
  6
CONTINUOUS
 10
419.397450
 20
471.221386
 11
499.397450
 21
471.221386
  0
LINE
  8
1
 62
7
  6
CONTINUOUS
 10
407.397450
 20
439.221386
 11
419.397450
 21
471.221386
  0
LINE
  8
1
 62
7
  6
CONTINUOUS
 10
427.397450
 20
415.199825
 11
427.397450
 21
315.221386
  0
LINE
  8
1
 62
7
  6
CONTINUOUS
 10
427.397450
 20
315.221386
 11
407.397450
 21
315.221386
  0
LINE
  8
1
 62
7
  6
CONTINUOUS
 10
427.397450
 20
385.199825
 11
415.397450
 21
385.199825
  0
LINE
  8
1
 62
7
  6
CONTINUOUS
 10
415.397450
 20
345.199825
 11
427.397450
 21
345.199825
  0
ARC
  8
1
 62
7
  6
CONTINUOUS
 10
453.397450
 20
381.199825
 40
4.000000
 50
0.000000
 51
90.000000
  0
LINE
  8
1
 62
7
  6
CONTINUOUS
 10
457.397450
 20
381.199825
 11
457.397450
 21
349.199825
  0
ARC
  8
1
 62
7
  6
CONTINUOUS
 10
453.397450
 20
349.199825
 40
4.000000
 50
-90.000000
 51
0.000000
  0
LINE
  8
1
 62
7
  6
CONTINUOUS
 10
427.397450
 20
345.199825
 11
427.397450
 21
347.199825
  0
LINE
  8
1
 62
7
  6
CONTINUOUS
 10
427.397450
 20
347.199825
 11
429.080127
 21
347.199825
  0
LINE
  8
1
 62
7
  6
CONTINUOUS
 10
429.397450
 20
347.199825
 11
429.397450
 21
345.199825
  0
LINE
  8
1
 62
7
  6
CONTINUOUS
 10
427.397450
 20
385.199825
 11
427.397450
 21
383.199825
  0
LINE
  8
1
 62
7
  6
CONTINUOUS
 10
427.397450
 20
383.199825
 11
429.397450
 21
383.199825
  0
LINE
  8
1
 62
7
  6
CONTINUOUS
 10
429.397450
 20
383.199825
 11
429.397450
 21
385.199825
  0
LINE
  8
1
 62
7
  6
CONTINUOUS
 10
429.397450
 20
385.199825
 11
453.397450
 21
385.199825
  0
LINE
  8
1
 62
7
  6
CONTINUOUS
 10
453.397450
 20
345.199825
 11
429.397450
 21
345.199825
  0
LINE
  8
1
 62
7
  6
CONTINUOUS
 10
411.397450
 20
296.221386
 11
439.397450
 21
296.221386
  0
TEXT
  8
1
 62
7
  6
CONTINUOUS
 10
436.885446
 20
382.326342
 40
8.000000
 41
0.916667
  1
ＰＵＳＨ
  7
KANJI
 50
-90.000000
 51
0.000000
  0
LINE
  8
1
 62
7
  6
CONTINUOUS
 10
434.624806
 20
382.788571
 11
434.624806
 21
346.994186
  0
LINE
  8
1
 62
7
  6
CONTINUOUS
 10
434.624806
 20
346.994186
 11
448.422642
 21
346.994186
  0
LINE
  8
1
 62
7
  6
CONTINUOUS
 10
448.422642
 20
346.994186
 11
448.422642
 21
382.788571
  0
LINE
  8
1
 62
7
  6
CONTINUOUS
 10
448.422642
 20
382.788571
 11
434.624806
 21
382.788571
  0
LINE
  8
1
 62
7
  6
CONTINUOUS
 10
442.177631
 20
315.221386
 11
445.397450
 21
296.221386
  0
LINE
  8
1
 62
7
  6
CONTINUOUS
 10
429.596996
 20
456.221386
 11
429.596996
 21
387.869994
  0
LINE
  8
1
 62
7
  6
CONTINUOUS
 10
429.596996
 20
387.869994
 11
459.969007
 21
387.869994
  0
LINE
  8
1
 62
7
  6
CONTINUOUS
 10
459.969007
 20
387.869994
 11
459.969007
 21
340.325023
  0
LINE
  8
1
 62
7
  6
CONTINUOUS
 10
428.177743
 20
315.221386
 11
442.177631
 21
315.221386
  0
LINE
  8
1
 62
7
  6
CONTINUOUS
 10
439.397450
 20
277.221386
 11
439.397450
 21
296.221386
  0
ARC
  8
1
 62
7
  6
CONTINUOUS
 10
443.397450
 20
277.221386
 40
4.000000
 50
180.000000
 51
-90.000000
  0
LINE
  8
1
 62
7
  6
CONTINUOUS
 10
407.397450
 20
415.199825
 11
427.397450
 21
415.199825
  0
LINE
  8
1
 62
7
  6
CONTINUOUS
 10
439.397450
 20
296.221386
 11
439.397450
 21
277.221386
  0
ARC
  8
1
 62
7
  6
CONTINUOUS
 10
374.397173
 20
412.489335
 40
1.000000
 50
92.045408
 51
180.000000
  0
LINE
  8
1
 62
7
  6
CONTINUOUS
 10
373.398235
 20
319.173209
 11
373.397450
 21
412.614132
  0
ARC
  8
1
 62
7
  6
CONTINUOUS
 10
374.397982
 20
319.195713
 40
1.000000
 50
180.000000
 51
-94.085617
  0
LINE
  8
1
 62
7
  6
CONTINUOUS
 10
397.397450
 20
414.842682
 11
374.291255
 21
413.484662
  0
LINE
  8
1
 62
7
  6
CONTINUOUS
 10
397.397450
 20
315.970033
 11
374.184718
 21
318.211715
  0
LINE
  8
1
 62
7
  6
CONTINUOUS
 10
375.435196
 20
321.313029
 11
397.397450
 21
319.221386
  0
LINE
  8
1
 62
7
  6
CONTINUOUS
 10
375.391413
 20
321.295637
 11
375.391413
 21
410.349263
  0
LINE
  8
1
 62
7
  6
CONTINUOUS
 10
375.369237
 20
410.338319
 11
397.397450
 21
411.615369
  0
ARC
  8
1
 62
7
  6
CONTINUOUS
 10
411.397450
 20
300.221386
 40
4.000000
 50
180.000000
 51
-90.000000
  0
LINE
  8
1
 62
7
  6
CONTINUOUS
 10
407.397450
 20
315.221386
 11
407.397450
 21
300.221386
  0
ARC
  8
1
 62
7
  6
CONTINUOUS
 10
415.397450
 20
349.199825
 40
4.000000
 50
180.000000
 51
-90.000000
  0
LINE
  8
1
 62
7
  6
CONTINUOUS
 10
411.397450
 20
381.199825
 11
411.397450
 21
349.199825
  0
ARC
  8
1
 62
7
  6
CONTINUOUS
 10
415.397450
 20
381.199825
 40
4.000000
 50
90.000000
 51
180.000000
  0
ARC
  8
1
 62
7
  6
CONTINUOUS
 10
410.397450
 20
418.199825
 40
3.000000
 50
180.000000
 51
-90.000000
  0
LINE
  8
1
 62
7
  6
CONTINUOUS
 10
407.397450
 20
439.221386
 11
407.397450
 21
418.199825
  0
LINE
  8
1
 62
7
  6
CONTINUOUS
 10
393.783096
 20
373.292789
 11
393.397450
 21
372.836428
  0
LINE
  8
1
 62
7
  6
CONTINUOUS
 10
393.783096
 20
373.292789
 11
393.397450
 21
373.725829
  0
LINE
  8
1
 62
7
  6
CONTINUOUS
 10
393.397450
 20
372.836428
 11
393.397450
 21
369.764982
  0
LINE
  8
1
 62
7
  6
CONTINUOUS
 10
393.397450
 20
369.764982
 11
397.397450
 21
369.764982
  0
LINE
  8
1
 62
7
  6
CONTINUOUS
 10
397.397450
 20
369.764982
 11
397.397450
 21
372.836428
  0
LINE
  8
1
 62
7
  6
CONTINUOUS
 10
397.397450
 20
372.836428
 11
393.397450
 21
372.836428
  0
LINE
  8
1
 62
7
  6
CONTINUOUS
 10
393.397450
 20
376.777575
 11
393.397450
 21
373.725829
  0
LINE
  8
1
 62
7
  6
CONTINUOUS
 10
393.397450
 20
373.725829
 11
397.397450
 21
373.725829
  0
LINE
  8
1
 62
7
  6
CONTINUOUS
 10
397.397450
 20
373.725829
 11
397.397450
 21
376.777575
  0
LINE
  8
1
 62
7
  6
CONTINUOUS
 10
397.397450
 20
376.777575
 11
393.397450
 21
376.777575
  0
LINE
  8
1
 62
7
  6
CONTINUOUS
 10
397.397450
 20
335.333573
 11
397.397450
 21
340.821386
  0
LINE
  8
1
 62
7
  6
CONTINUOUS
 10
397.397450
 20
340.821386
 11
393.397450
 21
340.821386
  0
LINE
  8
1
 62
7
  6
CONTINUOUS
 10
393.397450
 20
340.821386
 11
393.397450
 21
335.333573
  0
LINE
  8
1
 62
7
  6
CONTINUOUS
 10
393.397450
 20
335.333573
 11
397.397450
 21
335.333573
  0
LINE
  8
1
 62
7
  6
CONTINUOUS
 10
397.397450
 20
329.221386
 11
397.397450
 21
323.221386
  0
LINE
  8
1
 62
7
  6
CONTINUOUS
 10
397.397450
 20
323.221386
 11
393.397450
 21
323.221386
  0
LINE
  8
1
 62
7
  6
CONTINUOUS
 10
393.397450
 20
323.221386
 11
393.397450
 21
329.221386
  0
LINE
  8
1
 62
7
  6
CONTINUOUS
 10
393.397450
 20
329.221386
 11
397.397450
 21
329.221386
  0
LINE
  8
1
 62
7
  6
CONTINUOUS
 10
397.397450
 20
414.842682
 11
407.397450
 21
414.842682
  0
LINE
  8
1
 62
7
  6
CONTINUOUS
 10
397.397450
 20
315.935672
 11
397.397450
 21
414.842682
  0
LINE
  8
1
 62
7
  6
CONTINUOUS
 10
407.397450
 20
315.935672
 11
396.892072
 21
315.971770
  0
LINE
  8
1
 62
7
  6
CONTINUOUS
 10
407.397450
 20
415.199825
 11
407.397450
 21
315.221386
  0
LINE
  8
1
 62
7
  6
CONTINUOUS
 10
353.403815
 20
415.199825
 11
353.403815
 21
315.221386
  0
LINE
  8
1
 62
7
  6
CONTINUOUS
 10
349.403815
 20
415.199825
 11
403.397450
 21
415.199825
  0
LINE
  8
1
 62
7
  6
CONTINUOUS
 10
349.403815
 20
315.221386
 11
403.397450
 21
315.221386
  0
LINE
  8
1
 62
7
  6
CONTINUOUS
 10
353.403815
 20
415.199825
 11
354.439091
 21
411.336121
  0
LINE
  8
1
 62
7
  6
CONTINUOUS
 10
353.403815
 20
415.199825
 11
352.368539
 21
411.336121
  0
LINE
  8
1
 62
7
  6
CONTINUOUS
 10
353.403815
 20
315.221386
 11
352.368539
 21
319.085089
  0
LINE
  8
1
 62
7
  6
CONTINUOUS
 10
353.403815
 20
315.221386
 11
354.439091
 21
319.085089
  0
TEXT
  8
1
 62
7
  6
CONTINUOUS
 10
353.403815
 20
362.010605
 40
6.000000
 41
0.566667
  1
50
  7
KANJI
 50
90.000000
 51
0.000000
  0
LINE
  8
1
 62
7
  6
CONTINUOUS
 10
353.403815
 20
471.221386
 11
353.403815
 21
415.199825
  0
LINE
  8
1
 62
7
  6
CONTINUOUS
 10
349.403815
 20
471.221386
 11
415.397450
 21
471.221386
  0
LINE
  8
1
 62
7
  6
CONTINUOUS
 10
349.403815
 20
415.199825
 11
415.379106
 21
415.199825
  0
LINE
  8
1
 62
7
  6
CONTINUOUS
 10
353.403815
 20
471.221386
 11
354.439091
 21
467.357683
  0
LINE
  8
1
 62
7
  6
CONTINUOUS
 10
353.403815
 20
471.221386
 11
352.368539
 21
467.357683
  0
LINE
  8
1
 62
7
  6
CONTINUOUS
 10
353.403815
 20
415.199825
 11
352.368539
 21
419.063528
  0
LINE
  8
1
 62
7
  6
CONTINUOUS
 10
353.403815
 20
415.199825
 11
354.439091
 21
419.063528
  0
TEXT
  8
1
 62
7
  6
CONTINUOUS
 10
353.403815
 20
442.147800
 40
6.000000
 41
0.566667
  1
28
  7
KANJI
 50
90.000000
 51
0.000000
  0
LINE
  8
1
 62
7
  6
CONTINUOUS
 10
407.397450
 20
491.213151
 11
527.397450
 21
491.213151
  0
LINE
  8
1
 62
7
  6
CONTINUOUS
 10
407.397450
 20
495.213151
 11
407.397450
 21
443.221386
  0
LINE
  8
1
 62
7
  6
CONTINUOUS
 10
527.397450
 20
495.213151
 11
527.397450
 21
460.221386
  0
LINE
  8
1
 62
7
  6
CONTINUOUS
 10
407.397450
 20
491.213151
 11
411.261154
 21
492.248427
  0
LINE
  8
1
 62
7
  6
CONTINUOUS
 10
407.397450
 20
491.213151
 11
411.261154
 21
490.177874
  0
LINE
  8
1
 62
7
  6
CONTINUOUS
 10
527.397450
 20
491.213151
 11
523.533747
 21
490.177874
  0
LINE
  8
1
 62
7
  6
CONTINUOUS
 10
527.397450
 20
491.213151
 11
523.533747
 21
492.248427
  0
TEXT
  8
1
 62
7
  6
CONTINUOUS
 10
464.197450
 20
491.213151
 40
6.000000
 41
0.566667
  1
60
  7
KANJI
 50
0.000000
 51
0.000000
  0
LINE
  8
1
 62
7
  6
CONTINUOUS
 10
407.397450
 20
491.213151
 11
373.397492
 21
491.213151
  0
LINE
  8
1
 62
7
  6
CONTINUOUS
 10
407.397450
 20
495.213151
 11
407.397450
 21
443.221386
  0
LINE
  8
1
 62
7
  6
CONTINUOUS
 10
373.397492
 20
495.213151
 11
373.397492
 21
419.199825
  0
LINE
  8
1
 62
7
  6
CONTINUOUS
 10
407.397450
 20
491.213151
 11
403.533747
 21
490.177874
  0
LINE
  8
1
 62
7
  6
CONTINUOUS
 10
407.397450
 20
491.213151
 11
403.533747
 21
492.248427
  0
LINE
  8
1
 62
7
  6
CONTINUOUS
 10
373.397492
 20
491.213151
 11
377.261195
 21
492.248427
  0
LINE
  8
1
 62
7
  6
CONTINUOUS
 10
373.397492
 20
491.213151
 11
377.261195
 21
490.177874
  0
TEXT
  8
1
 62
7
  6
CONTINUOUS
 10
387.197471
 20
491.213151
 40
6.000000
 41
0.566667
  1
17
  7
KANJI
 50
0.000000
 51
0.000000
  0
LINE
  8
1
 62
7
  6
CONTINUOUS
 10
285.527105
 20
273.221386
 11
285.527105
 21
471.221386
  0
LINE
  8
1
 62
7
  6
CONTINUOUS
 10
289.527105
 20
273.221386
 11
267.528963
 21
273.221386
  0
LINE
  8
1
 62
7
  6
CONTINUOUS
 10
289.527105
 20
471.221386
 11
269.528963
 21
471.221386
  0
LINE
  8
1
 62
7
  6
CONTINUOUS
 10
285.527105
 20
273.221386
 11
284.491829
 21
277.085089
  0
LINE
  8
1
 62
7
  6
CONTINUOUS
 10
285.527105
 20
273.221386
 11
286.562382
 21
277.085089
  0
LINE
  8
1
 62
7
  6
CONTINUOUS
 10
285.527105
 20
471.221386
 11
286.562382
 21
467.357683
  0
LINE
  8
1
 62
7
  6
CONTINUOUS
 10
285.527105
 20
471.221386
 11
284.491829
 21
467.357683
  0
TEXT
  8
1
 62
7
  6
CONTINUOUS
 10
285.527105
 20
369.021386
 40
6.000000
 41
0.566667
  1
99
  7
KANJI
 50
90.000000
 51
0.000000
  0
LINE
  8
1
 62
7
  6
CONTINUOUS
 10
165.528963
 20
491.213151
 11
265.528963
 21
491.213151
  0
LINE
  8
1
 62
7
  6
CONTINUOUS
 10
165.528963
 20
495.213151
 11
165.528963
 21
475.221386
  0
LINE
  8
1
 62
7
  6
CONTINUOUS
 10
265.528963
 20
495.213151
 11
265.528963
 21
475.221386
  0
LINE
  8
1
 62
7
  6
CONTINUOUS
 10
165.528963
 20
491.213151
 11
169.392666
 21
492.248427
  0
LINE
  8
1
 62
7
  6
CONTINUOUS
 10
165.528963
 20
491.213151
 11
169.392666
 21
490.177874
  0
LINE
  8
1
 62
7
  6
CONTINUOUS
 10
265.528963
 20
491.213151
 11
261.665259
 21
490.177874
  0
LINE
  8
1
 62
7
  6
CONTINUOUS
 10
265.528963
 20
491.213151
 11
261.665259
 21
492.248427
  0
TEXT
  8
1
 62
7
  6
CONTINUOUS
 10
212.328963
 20
491.213151
 40
6.000000
 41
0.566667
  1
50
  7
KANJI
 50
0.000000
 51
0.000000
  0
LINE
  8
1
 62
7
  6
CONTINUOUS
 10
125.493874
 20
259.221386
 11
125.493874
 21
471.221386
  0
LINE
  8
1
 62
7
  6
CONTINUOUS
 10
121.493874
 20
259.221386
 11
204.292276
 21
259.221386
  0
LINE
  8
1
 62
7
  6
CONTINUOUS
 10
121.493874
 20
471.221386
 11
161.528963
 21
471.221386
  0
LINE
  8
1
 62
7
  6
CONTINUOUS
 10
125.493874
 20
259.221386
 11
124.458598
 21
263.085089
  0
LINE
  8
1
 62
7
  6
CONTINUOUS
 10
125.493874
 20
259.221386
 11
126.529150
 21
263.085089
  0
LINE
  8
1
 62
7
  6
CONTINUOUS
 10
125.493874
 20
471.221386
 11
126.529150
 21
467.357683
  0
LINE
  8
1
 62
7
  6
CONTINUOUS
 10
125.493874
 20
471.221386
 11
124.458598
 21
467.357683
  0
TEXT
  8
1
 62
7
  6
CONTINUOUS
 10
125.493874
 20
360.321386
 40
6.000000
 41
0.566667
  1
106
  7
KANJI
 50
90.000000
 51
0.000000
  0
LINE
  8
1
 62
7
  6
CONTINUOUS
 10
145.496422
 20
495.221386
 11
145.496422
 21
434.211304
  0
LINE
  8
1
 62
7
  6
CONTINUOUS
 10
141.496422
 20
471.221386
 11
161.528963
 21
471.221386
  0
LINE
  8
1
 62
7
  6
CONTINUOUS
 10
141.496422
 20
450.211304
 11
203.445080
 21
450.211304
  0
LINE
  8
1
 62
7
  6
CONTINUOUS
 10
145.496422
 20
471.221386
 11
144.461146
 21
475.085089
  0
LINE
  8
1
 62
7
  6
CONTINUOUS
 10
145.496422
 20
471.221386
 11
146.531698
 21
475.085089
  0
LINE
  8
1
 62
7
  6
CONTINUOUS
 10
145.496422
 20
450.211304
 11
146.531698
 21
446.347600
  0
LINE
  8
1
 62
7
  6
CONTINUOUS
 10
145.496422
 20
450.211304
 11
144.461146
 21
446.347600
  0
TEXT
  8
1
 62
7
  6
CONTINUOUS
 10
145.496422
 20
478.034200
 40
6.000000
 41
0.629630
  1
10.5
  7
KANJI
 50
90.000000
 51
0.000000
  0
LINE
  8
1
 62
7
  6
DASHDOT
 10
208.304615
 20
266.189195
 11
223.458884
 21
266.189195
  0
LINE
  8
1
 62
7
  6
DASHDOT
 10
216.388485
 20
272.319130
 11
216.388485
 21
260.369287
  0
LINE
  8
1
 62
7
  6
DASHDOT
 10
207.445080
 20
450.211304
 11
222.599350
 21
450.211304
  0
LINE
  8
1
 62
7
  6
DASHDOT
 10
215.528951
 20
456.341238
 11
215.528951
 21
444.391396
  0
ENDSEC
  0
EOF
