  0
SECTION
  2
HEADER
  9
$ACADVER
  1
AC1003
  9
$INSBASE
 10
0.000000
 20
0.000000
  9
$EXTMIN
 10
0.000000
 20
0.000000
  9
$EXTMAX
 10
840.000000
 20
594.000000
  9
$LIMMIN
 10
0.000000
 20
0.000000
  9
$LIMMAX
 10
840.000000
 20
594.000000
  9
$VIEWCTR
 10
420.000000
 20
297.000000
  9
$VIEWSIZE
 40
594.000000
  9
$PEXTMIN
 10
0.000000
 20
0.000000
 30
0.000000
  9
$PEXTMAX
 10
420.000000
 20
297.000000
 30
0.000000
  9
$SNAPMODE
 70
     0
  9
$SNAPUNIT
 10
1.000000
 20
1.000000
  9
$SNAPBASE
 10
0.000000
 20
0.000000
  9
$SNAPANG
 50
0.000000
  9
$SNAPISOPAIR
 70
     0
  9
$SNAPSTYLE
 70
     0
  9
$GRIDMODE
 70
     0
  9
$GRIDUNIT
 10
0.000000
 20
0.000000
  9
$ORTHOMODE
 70
     0
  9
$REGENMODE
 70
     1
  9
$FILLMODE
 70
     1
  9
$QTEXTMODE
 70
     0
  9
$DRAGMODE
 70
     2
  9
$LTSCALE
 40
0.500000
  9
$OSMODE
 70
     0
  9
$ATTMODE
 70
     1
  9
$TEXTSIZE
 40
0.200000
  9
$TRACEWID
 40
0.050000
  9
$TEXTSTYLE
  7
STANDARD
  9
$CLAYER
  8
0
  9
$CELTYPE
  6
BYLAYER
  9
$CECOLOR
 62
   256
  9
$DIMSCALE
 40
1.000000
  9
$DIMASZ
 40
1.000000
  9
$DIMEXO
 40
0.000000
  9
$DIMDLI
 40
0.500000
  9
$DIMRND
 40
0.000000
  9
$DIMDLE
 40
0.000000
  9
$DIMEXE
 40
0.000000
  9
$DIMTP
 40
0.000000
  9
$DIMTM
 40
0.000000
  9
$DIMTXT
 40
0.180000
  9
$DIMCEN
 40
0.000000
  9
$DIMTSZ
 40
0.000000
  9
$DIMTOL
 70
     0
  9
$DIMLIM
 70
     0
  9
$DIMTIH
 70
     1
  9
$DIMTOH
 70
     1
  9
$DIMSE1
 70
     0
  9
$DIMSE2
 70
     0
  9
$DIMTAD
 70
     0
  9
$DIMZIN
 70
     0
  9
$DIMBLK
  1

  9
$DIMASO
 70
     0
  9
$DIMSHO
 70
     0
  9
$DIMPOST
  1

  9
$DIMAPOST
  1

  9
$DIMALT
 70
     0
  9
$DIMALTD
 70
     0
  9
$DIMALTF
 40
25.400000
  9
$DIMLFAC
 40
1.000000
  9
$DIMTOFL
 70
     0
  9
$DIMTVP
 40
0.000000
  9
$DIMTIX
 70
     0
  9
$DIMSOXD
 70
     0
  9
$DIMSAH
 70
     0
  9
$DIMBLKL
  1

  9
$DIMBLKR
  1

  9
$LUNITS
 70
     2
  9
$LUPREC
 70
     2
  9
$AXISMODE
 70
     0
  9
$AXISUNIT
 10
1.000000
 20
1.000000
  9
$SKETCHINC
 40
0.000000
  9
$FILLETRAD
 40
0.000000
  9
$AUNITS
 70
     1
  9
$AUPREC
 70
     2
  9
$MENU
  1
ACAD
  9
$ELEVATION
 40
0.000000
  9
$THICKNESS
 40
0.000000
  9
$VIEWDIR
 10
0.000000
 20
0.000000
 30
1.000000
  9
$LIMCHECK
 70
     1
  9
$BLIPMODE
 70
     1
  9
$CHAMFERA
 40
0.000000
  9
$CHAMFERB
 40
0.000000
  9
$FASTZOOM
 70
     1
  9
$SKPOLY
 70
     0
  9
$TDCREATE
 40
0.000000
  9
$TDUPDATE
 40
0.000000
  9
$TDINDWG
 40
0.000000
  9
$TDUSRTIMER
 40
0.000000
  9
$USRTIMER
 70
     1
  9
$ANGBASE
 50
0.000000
  9
$ANGDIR
 70
     0
  9
$PDMODE
 70
     0
  9
$PDSIZE
 40
0.000000
  9
$PLINEWID
 40
0.000000
  9
$COORDS
 70
     2
  9
$USERI1
 70
     0
  9
$USERI2
 70
     0
  9
$USERI3
 70
     0
  9
$USERI4
 70
     0
  9
$USERI5
 70
     0
  9
$USERR1
 40
0.000000
  9
$USERR2
 40
0.000000
  9
$USERR3
 40
0.000000
  9
$USERR4
 40
0.000000
  9
$USERR5
 40
0.000000
  0
ENDSEC
  0
SECTION
  2
TABLES
  0
TABLE
  2
LTYPE
 70
     5
  0
LTYPE
  2
CONTINUOUS
 70
    64
  3
Solid line
 72
    65
 73
     0
 40
0.0
  0
LTYPE
  2
HIDDEN
 70
    64
  3
------------------------
 72
    65
 73
     2
 40
12.6
 49
8.4
 49
-4.2
  0
LTYPE
  2
DOT
 70
    64
  3
････････････････････････
 72
    65
 73
     2
 40
8.0
 49
6.0
 49
-2.0
  0
LTYPE
  2
DASHDOT
 70
    64
  3
--･--･--･--･--･--･--･--
 72
    65
 73
     4
 40
50.5
 49
30.0
 49
-9.0
 49
2.5
 49
-9.0
  0
LTYPE
  2
DIVIDE
 70
    64
  3
--･･--･･--･･--･･--･･--
 72
    65
 73
     6
 40
58.0
 49
30.0
 49
-9.0
 49
2.5
 49
-5.0
 49
2.5
 49
-9.0
  0
ENDTAB
  0
TABLE
  2
LAYER
 70
2
  0
LAYER
  2
1
 70
64
 62
7
  6
CONTINUOUS
  0
LAYER
  2
15
 70
64
 62
96
  6
CONTINUOUS
  0
ENDTAB
  0
TABLE
  2
STYLE
 70
     2
  0
STYLE
  2
STANDARD
 70
    64
 40
0.0
 41
1.0
 50
0.0
 71
     0
 42
0.2
  3
TXT
  4

  0
STYLE
  2
KANJI
 70
    64
 40
0.0
 41
1.0
 50
0.0
 71
     0
 42
0.2
  3
TXT
  4
BIGFONT
  0
ENDTAB
  0
TABLE
  2
VIEW
 70
     0
  0
ENDTAB
  0
ENDSEC
  0
SECTION
  2
BLOCKS
  0
ENDSEC
  0
SECTION
  2
ENTITIES
  0
LINE
  8
15
 62
96
  6
CONTINUOUS
 10
620.173997
 20
445.122388
 11
800.227081
 21
445.122388
  0
TEXT
  8
15
 62
96
  6
CONTINUOUS
 10
633.177831
 20
436.619881
 40
6.001769
 41
0.833333
  1
消費電力
  7
KANJI
 50
0.000000
 51
0.000000
  0
LINE
  8
15
 62
96
  6
CONTINUOUS
 10
30.000000
 20
544.151584
 11
30.000000
 21
30.000000
  0
LINE
  8
15
 62
96
  6
CONTINUOUS
 10
30.000000
 20
30.000000
 11
800.227081
 21
30.000000
  0
LINE
  8
15
 62
96
  6
CONTINUOUS
 10
728.879008
 20
41.403554
 11
703.946332
 21
41.403554
  0
TEXT
  8
15
 62
96
  6
CONTINUOUS
 10
668.409370
 20
39.382282
 40
3.601062
 41
1.018519
  1
出入管理システム
  7
KANJI
 50
0.000000
 51
0.000000
  0
TEXT
  8
15
 62
96
  6
CONTINUOUS
 10
668.550527
 20
31.618634
 40
7.202123
 41
1.782407
  1
株式会社
  7
KANJI
 50
0.000000
 51
0.000000
  0
LINE
  8
15
 62
96
  6
CONTINUOUS
 10
628.756797
 20
31.757640
 11
635.092369
 21
31.757640
  0
LINE
  8
15
 62
96
  6
CONTINUOUS
 10
666.038375
 20
39.457096
 11
666.038375
 21
41.888499
  0
LINE
  8
15
 62
96
  6
CONTINUOUS
 10
663.404362
 20
39.457096
 11
666.038375
 21
39.457096
  0
LINE
  8
15
 62
96
  6
CONTINUOUS
 10
663.404362
 20
31.757640
 11
663.404362
 21
39.457096
  0
LINE
  8
15
 62
96
  6
CONTINUOUS
 10
660.567717
 20
31.757640
 11
663.404362
 21
31.757640
  0
LINE
  8
15
 62
96
  6
CONTINUOUS
 10
658.863116
 20
31.757640
 11
655.299669
 21
31.757640
  0
LINE
  8
15
 62
96
  6
CONTINUOUS
 10
640.508608
 20
31.757640
 11
649.221143
 21
31.757640
  0
LINE
  8
15
 62
96
  6
CONTINUOUS
 10
640.508608
 20
36.012600
 11
640.508608
 21
31.757640
  0
LINE
  8
15
 62
96
  6
CONTINUOUS
 10
635.092369
 20
31.757640
 11
644.966187
 21
41.533696
  0
LINE
  8
15
 62
96
  6
CONTINUOUS
 10
644.966187
 20
41.533696
 11
644.966187
 21
36.012600
  0
LINE
  8
15
 62
96
  6
CONTINUOUS
 10
644.966187
 20
36.012600
 11
640.508608
 21
36.012600
  0
LINE
  8
15
 62
96
  6
CONTINUOUS
 10
649.221143
 20
37.430920
 11
655.299669
 21
31.757640
  0
ARC
  8
15
 62
96
  6
CONTINUOUS
 10
654.083963
 20
38.444008
 40
1.013088
 50
-90.000000
 51
90.000000
  0
LINE
  8
15
 62
96
  6
CONTINUOUS
 10
649.221143
 20
37.430920
 11
654.083963
 21
37.430920
  0
LINE
  8
15
 62
96
  6
CONTINUOUS
 10
650.031617
 20
39.457096
 11
654.083963
 21
39.457096
  0
LINE
  8
15
 62
96
  6
CONTINUOUS
 10
650.031617
 20
41.888499
 11
650.031617
 21
39.457096
  0
LINE
  8
15
 62
96
  6
CONTINUOUS
 10
650.031617
 20
41.888499
 11
654.851778
 21
41.888499
  0
ARC
  8
15
 62
96
  6
CONTINUOUS
 10
654.467866
 20
38.444008
 40
3.465820
 50
-76.055153
 51
83.640296
  0
LINE
  8
15
 62
96
  6
CONTINUOUS
 10
655.299669
 20
35.083527
 11
658.863116
 21
31.757640
  0
LINE
  8
15
 62
96
  6
CONTINUOUS
 10
666.038375
 20
41.888499
 11
657.933686
 21
41.888499
  0
LINE
  8
15
 62
96
  6
CONTINUOUS
 10
657.933686
 20
41.888499
 11
657.933686
 21
39.457096
  0
LINE
  8
15
 62
96
  6
CONTINUOUS
 10
657.933686
 20
39.457096
 11
660.567717
 21
39.457096
  0
LINE
  8
15
 62
96
  6
CONTINUOUS
 10
660.567717
 20
39.457096
 11
660.567717
 21
31.757640
  0
TEXT
  8
15
 62
96
  6
CONTINUOUS
 10
621.036305
 20
95.928688
 40
5.001474
 41
0.900000
  1
製品名
  7
KANJI
 50
0.000000
 51
0.000000
  0
LINE
  8
15
 62
96
  6
CONTINUOUS
 10
620.173997
 20
30.000000
 11
620.173997
 21
120.026556
  0
LINE
  8
15
 62
96
  6
CONTINUOUS
 10
620.173997
 20
102.021247
 11
800.227081
 21
102.021247
  0
LINE
  8
15
 62
96
  6
CONTINUOUS
 10
620.173997
 20
102.021234
 11
800.227081
 21
102.021247
  0
LINE
  8
15
 62
96
  6
CONTINUOUS
 10
800.227081
 20
54.007092
 11
620.173997
 21
54.007078
  0
TEXT
  8
15
 62
96
  6
CONTINUOUS
 10
621.665981
 20
78.177051
 40
5.001474
 41
0.900000
  1
縮尺（Ａ３）
  7
KANJI
 50
0.000000
 51
0.000000
  0
LINE
  8
15
 62
96
  6
CONTINUOUS
 10
650.182845
 20
66.010619
 11
650.182845
 21
54.007080
  0
LINE
  8
15
 62
96
  6
CONTINUOUS
 10
649.221143
 20
31.757640
 11
649.221143
 21
52.019363
  0
LINE
  8
15
 62
96
  6
CONTINUOUS
 10
649.221143
 20
52.019363
 11
628.756797
 21
31.757640
  0
LINE
  8
15
 62
96
  6
CONTINUOUS
 10
648.687832
 20
51.491333
 11
649.221143
 21
51.491333
  0
TEXT
  8
15
 62
96
  6
CONTINUOUS
 10
733.224966
 20
30.773985
 40
20.005898
 41
0.833333
  1
アート
  7
KANJI
 50
0.000000
 51
0.000000
  0
TEXT
  8
15
 62
96
  6
CONTINUOUS
 10
624.450470
 20
57.026766
 40
5.001474
 41
0.900000
  1
図面番号
  7
KANJI
 50
0.000000
 51
0.000000
  0
TEXT
  8
15
 62
96
  6
CONTINUOUS
 10
752.320241
 20
77.711739
 40
5.001474
 41
0.900000
  1
作図
  7
KANJI
 50
0.000000
 51
0.000000
  0
LINE
  8
15
 62
96
  6
CONTINUOUS
 10
650.182845
 20
84.015925
 11
650.182845
 21
66.010619
  0
LINE
  8
15
 62
96
  6
CONTINUOUS
 10
700.197590
 20
84.015925
 11
700.197590
 21
66.010623
  0
LINE
  8
15
 62
96
  6
CONTINUOUS
 10
750.212336
 20
84.015925
 11
750.212336
 21
66.010627
  0
LINE
  8
15
 62
96
  6
CONTINUOUS
 10
620.173997
 20
533.148340
 11
800.227081
 21
533.148340
  0
LINE
  8
15
 62
96
  6
CONTINUOUS
 10
620.173997
 20
522.145096
 11
800.227081
 21
522.145096
  0
LINE
  8
15
 62
96
  6
CONTINUOUS
 10
620.173997
 20
511.141852
 11
800.227081
 21
511.141852
  0
LINE
  8
15
 62
96
  6
CONTINUOUS
 10
800.227081
 20
500.138608
 11
620.173997
 21
500.138608
  0
LINE
  8
15
 62
96
  6
CONTINUOUS
 10
620.173997
 20
489.135364
 11
800.227081
 21
489.135364
  0
LINE
  8
15
 62
96
  6
CONTINUOUS
 10
620.173997
 20
456.125632
 11
800.227081
 21
456.125632
  0
LINE
  8
15
 62
96
  6
CONTINUOUS
 10
620.173997
 20
478.132120
 11
800.227081
 21
478.132120
  0
LINE
  8
15
 62
96
  6
CONTINUOUS
 10
620.173997
 20
467.128876
 11
800.227081
 21
467.128876
  0
LINE
  8
15
 62
96
  6
CONTINUOUS
 10
620.173997
 20
544.151584
 11
620.173997
 21
145.033928
  0
LINE
  8
15
 62
96
  6
CONTINUOUS
 10
620.173997
 20
120.026556
 11
620.173997
 21
145.033928
  0
TEXT
  8
15
 62
96
  6
DIVIDE
 10
630.176946
 20
535.649077
 40
6.001769
 41
0.833333
  1
商品コード
  7
KANJI
 50
0.000000
 51
0.000000
  0
TEXT
  8
15
 62
96
  6
DIVIDE
 10
689.194346
 20
524.645833
 40
6.001769
 41
0.833333
  1
定　　　　　格
  7
KANJI
 50
0.000000
 51
0.000000
  0
LINE
  8
15
 62
96
  6
CONTINUOUS
 10
800.220119
 20
290.869593
 11
800.220119
 21
295.133722
  0
LINE
  8
15
 62
96
  6
CONTINUOUS
 10
30.000000
 20
544.151584
 11
800.227600
 21
544.151584
  0
LINE
  8
15
 62
96
  6
CONTINUOUS
 10
800.227600
 20
29.999354
 11
800.227600
 21
544.150938
  0
TEXT
  8
15
 62
96
  6
CONTINUOUS
 10
621.035263
 20
113.255697
 40
5.001474
 41
0.900000
  1
型　式
  7
KANJI
 50
0.000000
 51
0.000000
  0
LINE
  8
15
 62
96
  6
CONTINUOUS
 10
620.172955
 20
119.026247
 11
800.226039
 21
119.026247
  0
LINE
  8
15
 62
96
  6
CONTINUOUS
 10
669.905314
 20
544.151584
 11
669.905314
 21
533.148340
  0
LINE
  8
15
 62
96
  6
CONTINUOUS
 10
620.172955
 20
130.029491
 11
800.226039
 21
130.029491
  0
TEXT
  8
15
 62
96
  6
CONTINUOUS
 10
632.576612
 20
121.526984
 40
6.001769
 41
0.944444
  1
図面履歴
  7
KANJI
 50
-0.000000
 51
0.000000
  0
LINE
  8
15
 62
96
  6
CONTINUOUS
 10
620.172955
 20
119.026247
 11
800.226039
 21
119.026247
  0
LINE
  8
15
 62
96
  6
CONTINUOUS
 10
670.187701
 20
130.029491
 11
670.187701
 21
119.026247
  0
LINE
  8
15
 62
96
  6
CONTINUOUS
 10
620.172955
 20
119.026247
 11
800.226039
 21
119.026247
  0
LINE
  8
15
 62
96
  6
CONTINUOUS
 10
710.241002
 20
66.007085
 11
710.241002
 21
54.007085
  0
LINE
  8
15
 62
96
  6
CONTINUOUS
 10
724.241002
 20
66.007095
 11
724.241002
 21
54.007095
  0
TEXT
  8
15
 62
96
  6
CONTINUOUS
 10
712.264335
 20
57.242959
 40
5.000000
 41
0.900000
  1
日付
  7
KANJI
 50
0.000000
 51
0.000000
  0
LINE
  8
15
 62
96
  6
CONTINUOUS
 10
776.227081
 20
66.007090
 11
776.227081
 21
54.007090
  0
LINE
  8
15
 62
96
  6
CONTINUOUS
 10
782.328460
 20
64.487090
 11
782.328460
 21
55.527090
  0
CIRCLE
  8
15
 62
96
  6
CONTINUOUS
 10
782.328460
 20
60.007090
 40
1.920000
  0
CIRCLE
  8
15
 62
96
  6
CONTINUOUS
 10
782.328460
 20
60.007090
 40
3.200000
  0
LINE
  8
15
 62
96
  6
CONTINUOUS
 10
787.607002
 20
61.927090
 11
787.607002
 21
58.087090
  0
LINE
  8
15
 62
96
  6
CONTINUOUS
 10
797.847002
 20
63.207090
 11
797.847002
 21
56.807090
  0
LINE
  8
15
 62
96
  6
CONTINUOUS
 10
787.607002
 20
61.927090
 11
797.847002
 21
63.207090
  0
LINE
  8
15
 62
96
  6
CONTINUOUS
 10
787.607002
 20
58.087090
 11
797.847002
 21
56.807090
  0
LINE
  8
15
 62
96
  6
CONTINUOUS
 10
777.848460
 20
60.007090
 11
798.939002
 21
60.007090
  0
TEXT
  8
15
 62
96
  6
CONTINUOUS
 10
651.605163
 20
78.365937
 40
5.001474
 41
0.900000
  1
承認
  7
KANJI
 50
0.000000
 51
0.000000
  0
TEXT
  8
15
 62
96
  6
CONTINUOUS
 10
701.619909
 20
78.365937
 40
5.001474
 41
0.900000
  1
検図
  7
KANJI
 50
0.000000
 51
0.000000
  0
TEXT
  8
15
 62
96
  6
CONTINUOUS
 10
720.835107
 20
69.141220
 40
10.002949
 41
0.900000
  1
辻
  7
KANJI
 50
0.000000
 51
0.000000
  0
TEXT
  8
15
 62
96
  6
CONTINUOUS
 10
664.974161
 20
69.141220
 40
10.002949
 41
0.900000
  1
仲代
  7
KANJI
 50
0.000000
 51
0.000000
  0
LINE
  8
15
 62
96
  6
CONTINUOUS
 10
800.227600
 20
66.010630
 11
620.173997
 21
66.010617
  0
LINE
  8
15
 62
96
  6
CONTINUOUS
 10
620.173997
 20
84.015925
 11
800.227600
 21
84.015925
  0
TEXT
  8
15
 62
96
  6
DIVIDE
 10
633.177831
 20
513.642589
 40
6.001769
 41
0.833333
  1
駆動方式
  7
KANJI
 50
0.000000
 51
0.000000
  0
TEXT
  8
15
 62
96
  6
DIVIDE
 10
633.177831
 20
502.639345
 40
6.001769
 41
0.833333
  1
停電補償
  7
KANJI
 50
0.000000
 51
0.000000
  0
TEXT
  8
15
 62
96
  6
DIVIDE
 10
633.177831
 20
491.636101
 40
6.001769
 41
0.833333
  1
接点構成
  7
KANJI
 50
0.000000
 51
0.000000
  0
TEXT
  8
15
 62
96
  6
DIVIDE
 10
627.176062
 20
480.632857
 40
6.001769
 41
0.833333
  1
設定最小単位
  7
KANJI
 50
0.000000
 51
0.000000
  0
TEXT
  8
15
 62
96
  6
DIVIDE
 10
621.174292
 20
469.629613
 40
6.001769
 41
0.833333
  1
最小時間設定間隔
  7
KANJI
 50
0.000000
 51
0.000000
  0
TEXT
  8
15
 62
96
  6
DIVIDE
 10
636.178716
 20
458.626369
 40
6.001769
 41
0.833333
  1
動作数
  7
KANJI
 50
0.000000
 51
0.000000
  0
TEXT
  8
15
 62
96
  6
CONTINUOUS
 10
633.177831
 20
447.623125
 40
6.001769
 41
0.833333
  1
定格電圧
  7
KANJI
 50
0.000000
 51
0.000000
  0
TEXT
  8
15
 62
96
  6
DIVIDE
 10
726.205258
 20
513.642589
 40
6.001769
 41
0.833333
  1
電子式
  7
KANJI
 50
0.000000
 51
0.000000
  0
TEXT
  8
15
 62
96
  6
DIVIDE
 10
729.202131
 20
480.569715
 40
6.001769
 41
0.833333
  1
１分
  7
KANJI
 50
0.000000
 51
0.000000
  0
TEXT
  8
15
 62
96
  6
DIVIDE
 10
729.195931
 20
469.571715
 40
6.001769
 41
0.833333
  1
１分
  7
KANJI
 50
0.000000
 51
0.000000
  0
LINE
  8
15
 62
96
  6
CONTINUOUS
 10
669.905314
 20
522.172046
 11
669.905314
 21
434.119144
  0
TEXT
  8
15
 62
96
  6
CONTINUOUS
 10
767.671106
 20
69.141220
 40
10.002949
 41
0.900000
  1
森
  7
KANJI
 50
0.000000
 51
0.000000
  0
TEXT
  8
15
 62
96
  6
DIVIDE
 10
714.201719
 20
535.649077
 40
6.001769
 41
0.833333
  1
０８０３０１６
  7
KANJI
 50
0.000000
 51
0.000000
  0
TEXT
  8
15
 62
96
  6
CONTINUOUS
 10
709.779597
 20
121.540798
 40
6.001769
 41
0.566667
  1
G13007-03-03728
  7
KANJI
 50
0.000000
 51
0.000000
  0
TEXT
  8
15
 62
96
  6
CONTINUOUS
 10
684.391889
 20
105.022118
 40
10.002949
 41
0.900000
  1
Ｓ１ＷＴＭ
  7
KANJI
 50
0.000000
 51
0.000000
  0
TEXT
  8
15
 62
96
  6
CONTINUOUS
 10
625.843729
 20
69.030416
 40
6.001769
 41
0.833333
  1
１：１
  7
KANJI
 50
0.000000
 51
0.000000
  0
LINE
  8
1
 62
7
  6
CONTINUOUS
 10
174.760818
 20
468.219800
 11
274.760818
 21
468.219800
  0
ARC
  8
1
 62
7
  6
CONTINUOUS
 10
225.449508
 20
263.398499
 40
3.885552
 50
-144.674570
 51
-34.711172
  0
ARC
  8
1
 62
7
  6
CONTINUOUS
 10
225.449508
 20
263.398499
 40
3.885552
 50
27.388071
 51
152.611929
  0
ARC
  8
1
 62
7
  6
CONTINUOUS
 10
230.829240
 20
261.685911
 40
0.500000
 50
-90.000000
 51
0.000000
  0
LINE
  8
1
 62
7
  6
CONTINUOUS
 10
231.329240
 20
264.685911
 11
231.329240
 21
261.685911
  0
LINE
  8
1
 62
7
  6
CONTINUOUS
 10
230.829240
 20
261.185911
 11
228.643560
 21
261.185911
  0
ARC
  8
1
 62
7
  6
CONTINUOUS
 10
230.829240
 20
264.685911
 40
0.500000
 50
0.000000
 51
90.000000
  0
LINE
  8
1
 62
7
  6
CONTINUOUS
 10
228.899533
 20
265.185911
 11
230.829240
 21
265.185911
  0
ARC
  8
1
 62
7
  6
CONTINUOUS
 10
220.069776
 20
261.685911
 40
0.500000
 50
180.000000
 51
-90.000000
  0
LINE
  8
1
 62
7
  6
CONTINUOUS
 10
219.569776
 20
264.685911
 11
219.569776
 21
261.685911
  0
LINE
  8
1
 62
7
  6
CONTINUOUS
 10
220.069776
 20
261.185911
 11
222.255456
 21
261.185911
  0
ARC
  8
1
 62
7
  6
CONTINUOUS
 10
220.069776
 20
264.685911
 40
0.500000
 50
90.000000
 51
180.000000
  0
LINE
  8
1
 62
7
  6
CONTINUOUS
 10
221.999483
 20
265.185911
 11
220.069776
 21
265.185911
  0
LINE
  8
1
 62
7
  6
CONTINUOUS
 10
176.760818
 20
150.219800
 11
272.760818
 21
150.219800
  0
ARC
  8
1
 62
7
  6
CONTINUOUS
 10
190.760818
 20
64.219800
 40
2.000000
 50
180.000000
 51
-90.000000
  0
LINE
  8
1
 62
7
  6
CONTINUOUS
 10
216.760818
 20
62.219800
 11
190.760818
 21
62.219800
  0
LINE
  8
1
 62
7
  6
CONTINUOUS
 10
188.760818
 20
72.219800
 11
188.760818
 21
64.219800
  0
LINE
  8
1
 62
7
  6
CONTINUOUS
 10
212.760818
 20
72.219800
 11
212.760818
 21
78.219800
  0
LINE
  8
1
 62
7
  6
CONTINUOUS
 10
212.760818
 20
78.219800
 11
186.760818
 21
78.219800
  0
LINE
  8
1
 62
7
  6
CONTINUOUS
 10
186.760818
 20
78.219800
 11
186.760818
 21
74.219800
  0
LINE
  8
1
 62
7
  6
CONTINUOUS
 10
188.760818
 20
72.219800
 11
212.760818
 21
72.219800
  0
ARC
  8
1
 62
7
  6
CONTINUOUS
 10
188.760818
 20
74.219800
 40
2.000000
 50
180.000000
 51
-90.000000
  0
LINE
  8
1
 62
7
  6
CONTINUOUS
 10
212.760818
 20
66.219800
 11
212.760818
 21
72.219800
  0
LINE
  8
1
 62
7
  6
CONTINUOUS
 10
236.760818
 20
72.219800
 11
236.760818
 21
66.219800
  0
LINE
  8
1
 62
7
  6
CONTINUOUS
 10
236.760818
 20
78.219800
 11
236.760818
 21
72.219800
  0
LINE
  8
1
 62
7
  6
CONTINUOUS
 10
262.760818
 20
78.219800
 11
236.760818
 21
78.219800
  0
LINE
  8
1
 62
7
  6
CONTINUOUS
 10
236.760818
 20
72.219800
 11
260.760818
 21
72.219800
  0
LINE
  8
1
 62
7
  6
CONTINUOUS
 10
262.760818
 20
74.219800
 11
262.760818
 21
78.219800
  0
ARC
  8
1
 62
7
  6
CONTINUOUS
 10
260.760818
 20
74.219800
 40
2.000000
 50
-90.000000
 51
0.000000
  0
ARC
  8
1
 62
7
  6
CONTINUOUS
 10
258.760818
 20
64.219800
 40
2.000000
 50
-90.000000
 51
0.000000
  0
LINE
  8
1
 62
7
  6
CONTINUOUS
 10
260.760818
 20
72.219800
 11
260.760818
 21
64.219800
  0
LINE
  8
1
 62
7
  6
CONTINUOUS
 10
236.760818
 20
62.219800
 11
258.760818
 21
62.219800
  0
ARC
  8
1
 62
7
  6
CONTINUOUS
 10
178.760818
 20
76.219800
 40
2.000000
 50
180.000000
 51
-90.000000
  0
LINE
  8
1
 62
7
  6
CONTINUOUS
 10
176.760818
 20
76.219800
 11
176.760818
 21
100.219800
  0
ARC
  8
1
 62
7
  6
CONTINUOUS
 10
176.760818
 20
76.219800
 40
2.000000
 50
180.000000
 51
-90.000000
  0
LINE
  8
1
 62
7
  6
CONTINUOUS
 10
174.760818
 20
100.219800
 11
174.760818
 21
76.219800
  0
LINE
  8
1
 62
7
  6
CONTINUOUS
 10
176.760818
 20
100.219800
 11
174.760818
 21
100.219800
  0
LINE
  8
1
 62
7
  6
CONTINUOUS
 10
178.760818
 20
74.219800
 11
188.760818
 21
74.219800
  0
LINE
  8
1
 62
7
  6
CONTINUOUS
 10
274.760818
 20
100.219800
 11
272.760818
 21
100.219800
  0
LINE
  8
1
 62
7
  6
CONTINUOUS
 10
272.760818
 20
100.219800
 11
272.760818
 21
76.219800
  0
LINE
  8
1
 62
7
  6
CONTINUOUS
 10
274.760818
 20
76.219800
 11
274.760818
 21
100.219800
  0
ARC
  8
1
 62
7
  6
CONTINUOUS
 10
272.760818
 20
76.219800
 40
2.000000
 50
-90.000000
 51
0.000000
  0
ARC
  8
1
 62
7
  6
CONTINUOUS
 10
270.760818
 20
76.219800
 40
2.000000
 50
-90.000000
 51
0.000000
  0
LINE
  8
1
 62
7
  6
CONTINUOUS
 10
270.760818
 20
74.219800
 11
260.760818
 21
74.219800
  0
LINE
  8
1
 62
7
  6
CONTINUOUS
 10
212.760818
 20
66.219800
 11
212.760818
 21
72.219800
  0
LINE
  8
1
 62
7
  6
CONTINUOUS
 10
216.760818
 20
66.219800
 11
216.760818
 21
62.219800
  0
LINE
  8
1
 62
7
  6
CONTINUOUS
 10
212.760818
 20
66.219800
 11
216.760818
 21
66.219800
  0
LINE
  8
1
 62
7
  6
CONTINUOUS
 10
232.760818
 20
62.219800
 11
236.760818
 21
62.219800
  0
LINE
  8
1
 62
7
  6
CONTINUOUS
 10
232.760818
 20
66.219800
 11
232.760818
 21
62.219800
  0
LINE
  8
1
 62
7
  6
CONTINUOUS
 10
236.760818
 20
66.219800
 11
232.760818
 21
66.219800
  0
LINE
  8
1
 62
7
  6
CONTINUOUS
 10
274.760818
 20
194.219800
 11
274.760818
 21
159.803361
  0
LINE
  8
1
 62
7
  6
CONTINUOUS
 10
176.760818
 20
182.219800
 11
272.760818
 21
182.219800
  0
LINE
  8
1
 62
7
  6
CONTINUOUS
 10
272.760818
 20
194.219800
 11
176.760818
 21
194.219800
  0
LINE
  8
1
 62
7
  6
CONTINUOUS
 10
176.760818
 20
194.219800
 11
176.760818
 21
175.844726
  0
LINE
  8
1
 62
7
  6
CONTINUOUS
 10
272.760818
 20
177.219800
 11
272.760818
 21
194.219800
  0
LINE
  8
1
 62
7
  6
CONTINUOUS
 10
174.760818
 20
176.219800
 11
174.760818
 21
143.219800
  0
LINE
  8
1
 62
7
  6
CONTINUOUS
 10
174.760818
 20
194.219800
 11
174.760818
 21
170.219800
  0
ARC
  8
1
 62
7
  6
CONTINUOUS
 10
177.675510
 20
215.619800
 40
1.000000
 50
90.000000
 51
174.897835
  0
LINE
  8
1
 62
7
  6
CONTINUOUS
 10
174.760818
 20
194.219800
 11
176.679473
 21
215.708732
  0
LINE
  8
1
 62
7
  6
CONTINUOUS
 10
177.675510
 20
216.619800
 11
271.846126
 21
216.619800
  0
ARC
  8
1
 62
7
  6
CONTINUOUS
 10
179.461225
 20
213.219800
 40
1.000000
 50
90.000000
 51
174.897835
  0
LINE
  8
1
 62
7
  6
CONTINUOUS
 10
270.060411
 20
214.219800
 11
179.461225
 21
214.219800
  0
LINE
  8
1
 62
7
  6
CONTINUOUS
 10
178.465187
 20
213.308732
 11
176.760818
 21
194.219800
  0
ARC
  8
1
 62
7
  6
CONTINUOUS
 10
271.846126
 20
215.619800
 40
1.000000
 50
5.102165
 51
90.000000
  0
LINE
  8
1
 62
7
  6
CONTINUOUS
 10
272.842163
 20
215.708732
 11
274.760818
 21
194.219800
  0
ARC
  8
1
 62
7
  6
CONTINUOUS
 10
270.060411
 20
213.219800
 40
1.000000
 50
5.102165
 51
90.000000
  0
LINE
  8
1
 62
7
  6
CONTINUOUS
 10
272.760818
 20
194.219800
 11
271.056449
 21
213.308732
  0
LINE
  8
1
 62
7
  6
CONTINUOUS
 10
184.760818
 20
198.219800
 11
184.760818
 21
194.219800
  0
LINE
  8
1
 62
7
  6
CONTINUOUS
 10
184.760818
 20
194.219800
 11
198.760818
 21
194.219800
  0
LINE
  8
1
 62
7
  6
CONTINUOUS
 10
198.760818
 20
194.219800
 11
198.760818
 21
198.219800
  0
LINE
  8
1
 62
7
  6
CONTINUOUS
 10
198.760818
 20
198.219800
 11
184.760818
 21
198.219800
  0
LINE
  8
1
 62
7
  6
CONTINUOUS
 10
206.760818
 20
198.219800
 11
206.760818
 21
194.219800
  0
LINE
  8
1
 62
7
  6
CONTINUOUS
 10
206.760818
 20
194.219800
 11
220.760818
 21
194.219800
  0
LINE
  8
1
 62
7
  6
CONTINUOUS
 10
220.760818
 20
194.219800
 11
220.760818
 21
198.219800
  0
LINE
  8
1
 62
7
  6
CONTINUOUS
 10
220.760818
 20
198.219800
 11
206.760818
 21
198.219800
  0
LINE
  8
1
 62
7
  6
CONTINUOUS
 10
228.760818
 20
198.219800
 11
228.760818
 21
194.219800
  0
LINE
  8
1
 62
7
  6
CONTINUOUS
 10
228.760818
 20
194.219800
 11
242.760818
 21
194.219800
  0
LINE
  8
1
 62
7
  6
CONTINUOUS
 10
242.760818
 20
194.219800
 11
242.760818
 21
198.219800
  0
LINE
  8
1
 62
7
  6
CONTINUOUS
 10
242.760818
 20
198.219800
 11
228.760818
 21
198.219800
  0
LINE
  8
1
 62
7
  6
CONTINUOUS
 10
250.760818
 20
198.219800
 11
250.760818
 21
194.219800
  0
LINE
  8
1
 62
7
  6
CONTINUOUS
 10
250.760818
 20
194.219800
 11
264.760818
 21
194.219800
  0
LINE
  8
1
 62
7
  6
CONTINUOUS
 10
264.760818
 20
194.219800
 11
264.760818
 21
198.219800
  0
LINE
  8
1
 62
7
  6
CONTINUOUS
 10
264.760818
 20
198.219800
 11
250.760818
 21
198.219800
  0
LINE
  8
1
 62
7
  6
CONTINUOUS
 10
176.760818
 20
160.440595
 11
176.760818
 21
177.219800
  0
LINE
  8
1
 62
7
  6
CONTINUOUS
 10
272.760818
 20
177.219800
 11
272.760818
 21
156.219800
  0
LINE
  8
1
 62
7
  6
CONTINUOUS
 10
174.760818
 20
143.219800
 11
174.760818
 21
141.408180
  0
LINE
  8
1
 62
7
  6
CONTINUOUS
 10
176.760818
 20
143.219800
 11
176.760818
 21
162.219800
  0
LINE
  8
1
 62
7
  6
CONTINUOUS
 10
176.760818
 20
162.219800
 11
174.760818
 21
162.219800
  0
LINE
  8
1
 62
7
  6
CONTINUOUS
 10
272.760818
 20
162.219800
 11
272.760818
 21
143.219800
  0
LINE
  8
1
 62
7
  6
CONTINUOUS
 10
274.760818
 20
143.219800
 11
274.760818
 21
162.219800
  0
LINE
  8
1
 62
7
  6
CONTINUOUS
 10
274.760818
 20
162.219800
 11
272.760818
 21
162.219800
  0
LINE
  8
1
 62
7
  6
CONTINUOUS
 10
268.760818
 20
172.219800
 11
180.760818
 21
172.219800
  0
LINE
  8
1
 62
7
  6
CONTINUOUS
 10
268.760818
 20
170.219800
 11
268.760818
 21
172.219800
  0
LINE
  8
1
 62
7
  6
CONTINUOUS
 10
180.760818
 20
170.219800
 11
268.760818
 21
170.219800
  0
LINE
  8
1
 62
7
  6
CONTINUOUS
 10
180.760818
 20
172.219800
 11
180.760818
 21
170.219800
  0
LINE
  8
1
 62
7
  6
CONTINUOUS
 10
272.760818
 20
182.219800
 11
274.760818
 21
182.219800
  0
LINE
  8
1
 62
7
  6
CONTINUOUS
 10
274.760818
 20
182.219800
 11
174.760818
 21
182.219800
  0
ARC
  8
1
 62
7
  6
CONTINUOUS
 10
179.760818
 20
177.219800
 40
1.000000
 50
0.000000
 51
90.000000
  0
LINE
  8
1
 62
7
  6
CONTINUOUS
 10
180.760818
 20
177.219800
 11
180.760818
 21
170.219800
  0
LINE
  8
1
 62
7
  6
CONTINUOUS
 10
177.760818
 20
178.219800
 11
179.760818
 21
178.219800
  0
ARC
  8
1
 62
7
  6
CONTINUOUS
 10
177.760818
 20
177.219800
 40
1.000000
 50
90.000000
 51
180.000000
  0
ARC
  8
1
 62
7
  6
CONTINUOUS
 10
271.760818
 20
177.219800
 40
1.000000
 50
0.000000
 51
90.000000
  0
LINE
  8
1
 62
7
  6
CONTINUOUS
 10
269.760818
 20
178.219800
 11
271.760818
 21
178.219800
  0
ARC
  8
1
 62
7
  6
CONTINUOUS
 10
269.760818
 20
177.219800
 40
1.000000
 50
90.000000
 51
180.000000
  0
LINE
  8
1
 62
7
  6
CONTINUOUS
 10
268.760818
 20
170.219800
 11
268.760818
 21
177.219800
  0
LINE
  8
1
 62
7
  6
CONTINUOUS
 10
174.760818
 20
143.219800
 11
174.760818
 21
100.219800
  0
LINE
  8
1
 62
7
  6
CONTINUOUS
 10
176.760818
 20
100.219800
 11
176.760818
 21
143.219800
  0
LINE
  8
1
 62
7
  6
CONTINUOUS
 10
174.760818
 20
100.219800
 11
176.760818
 21
100.219800
  0
LINE
  8
1
 62
7
  6
CONTINUOUS
 10
272.760818
 20
143.219800
 11
272.760818
 21
100.219800
  0
LINE
  8
1
 62
7
  6
CONTINUOUS
 10
274.760818
 20
100.219800
 11
274.760818
 21
143.219800
  0
LINE
  8
1
 62
7
  6
CONTINUOUS
 10
272.760818
 20
100.219800
 11
274.760818
 21
100.219800
  0
LINE
  8
1
 62
7
  6
CONTINUOUS
 10
176.760818
 20
143.219800
 11
176.760818
 21
112.219800
  0
LINE
  8
1
 62
7
  6
CONTINUOUS
 10
176.760818
 20
112.219800
 11
182.760818
 21
112.219800
  0
LINE
  8
1
 62
7
  6
CONTINUOUS
 10
182.760818
 20
112.219800
 11
182.760818
 21
143.219800
  0
LINE
  8
1
 62
7
  6
CONTINUOUS
 10
182.760818
 20
143.219800
 11
176.760818
 21
143.219800
  0
LINE
  8
1
 62
7
  6
CONTINUOUS
 10
196.760818
 20
143.219800
 11
196.760818
 21
112.219800
  0
LINE
  8
1
 62
7
  6
CONTINUOUS
 10
196.760818
 20
112.219800
 11
200.760818
 21
112.219800
  0
LINE
  8
1
 62
7
  6
CONTINUOUS
 10
200.760818
 20
112.219800
 11
200.760818
 21
143.219800
  0
LINE
  8
1
 62
7
  6
CONTINUOUS
 10
200.760818
 20
143.219800
 11
196.760818
 21
143.219800
  0
LINE
  8
1
 62
7
  6
CONTINUOUS
 10
214.760818
 20
143.219800
 11
214.760818
 21
112.219800
  0
LINE
  8
1
 62
7
  6
CONTINUOUS
 10
214.760818
 20
112.219800
 11
218.760818
 21
112.219800
  0
LINE
  8
1
 62
7
  6
CONTINUOUS
 10
218.760818
 20
112.219800
 11
218.760818
 21
143.219800
  0
LINE
  8
1
 62
7
  6
CONTINUOUS
 10
218.760818
 20
143.219800
 11
214.760818
 21
143.219800
  0
LINE
  8
1
 62
7
  6
CONTINUOUS
 10
232.760818
 20
143.219800
 11
232.760818
 21
112.219800
  0
LINE
  8
1
 62
7
  6
CONTINUOUS
 10
232.760818
 20
112.219800
 11
236.760818
 21
112.219800
  0
LINE
  8
1
 62
7
  6
CONTINUOUS
 10
236.760818
 20
112.219800
 11
236.760818
 21
143.219800
  0
LINE
  8
1
 62
7
  6
CONTINUOUS
 10
236.760818
 20
143.219800
 11
232.760818
 21
143.219800
  0
LINE
  8
1
 62
7
  6
CONTINUOUS
 10
250.760818
 20
143.219800
 11
250.760818
 21
112.219800
  0
LINE
  8
1
 62
7
  6
CONTINUOUS
 10
250.760818
 20
112.219800
 11
254.760818
 21
112.219800
  0
LINE
  8
1
 62
7
  6
CONTINUOUS
 10
254.760818
 20
112.219800
 11
254.760818
 21
143.219800
  0
LINE
  8
1
 62
7
  6
CONTINUOUS
 10
254.760818
 20
143.219800
 11
250.760818
 21
143.219800
  0
LINE
  8
1
 62
7
  6
CONTINUOUS
 10
268.760818
 20
143.219800
 11
268.760818
 21
112.219800
  0
LINE
  8
1
 62
7
  6
CONTINUOUS
 10
268.760818
 20
112.219800
 11
272.760818
 21
112.219800
  0
LINE
  8
1
 62
7
  6
CONTINUOUS
 10
272.760818
 20
112.219800
 11
272.760818
 21
143.219800
  0
LINE
  8
1
 62
7
  6
CONTINUOUS
 10
272.760818
 20
143.219800
 11
268.760818
 21
143.219800
  0
LINE
  8
1
 62
7
  6
CONTINUOUS
 10
189.522737
 20
131.219800
 11
189.522737
 21
129.219800
  0
LINE
  8
1
 62
7
  6
CONTINUOUS
 10
189.522737
 20
129.219800
 11
190.429211
 21
129.219800
  0
LINE
  8
1
 62
7
  6
CONTINUOUS
 10
190.429211
 20
129.219800
 11
190.429211
 21
131.219800
  0
LINE
  8
1
 62
7
  6
CONTINUOUS
 10
190.429211
 20
131.219800
 11
189.522737
 21
131.219800
  0
ARC
  8
1
 62
7
  6
CONTINUOUS
 10
192.022838
 20
127.219800
 40
4.000000
 50
0.000000
 51
90.000000
  0
LINE
  8
1
 62
7
  6
CONTINUOUS
 10
188.022838
 20
131.219800
 11
192.022838
 21
131.219800
  0
ARC
  8
1
 62
7
  6
CONTINUOUS
 10
188.022838
 20
127.219800
 40
4.000000
 50
90.000000
 51
180.000000
  0
LINE
  8
1
 62
7
  6
CONTINUOUS
 10
207.511309
 20
131.219800
 11
207.511309
 21
129.219800
  0
LINE
  8
1
 62
7
  6
CONTINUOUS
 10
207.511309
 20
129.219800
 11
208.417784
 21
129.219800
  0
LINE
  8
1
 62
7
  6
CONTINUOUS
 10
208.417784
 20
129.219800
 11
208.417784
 21
131.219800
  0
LINE
  8
1
 62
7
  6
CONTINUOUS
 10
208.417784
 20
131.219800
 11
207.511309
 21
131.219800
  0
ARC
  8
1
 62
7
  6
CONTINUOUS
 10
210.011410
 20
127.219800
 40
4.000000
 50
0.000000
 51
90.000000
  0
LINE
  8
1
 62
7
  6
CONTINUOUS
 10
206.011410
 20
131.219800
 11
210.011410
 21
131.219800
  0
ARC
  8
1
 62
7
  6
CONTINUOUS
 10
206.011410
 20
127.219800
 40
4.000000
 50
90.000000
 51
180.000000
  0
LINE
  8
1
 62
7
  6
CONTINUOUS
 10
225.574601
 20
131.219800
 11
225.574601
 21
129.219800
  0
LINE
  8
1
 62
7
  6
CONTINUOUS
 10
225.574601
 20
129.219800
 11
226.481075
 21
129.219800
  0
LINE
  8
1
 62
7
  6
CONTINUOUS
 10
226.481075
 20
129.219800
 11
226.481075
 21
131.219800
  0
LINE
  8
1
 62
7
  6
CONTINUOUS
 10
226.481075
 20
131.219800
 11
225.574601
 21
131.219800
  0
ARC
  8
1
 62
7
  6
CONTINUOUS
 10
228.074702
 20
127.219800
 40
4.000000
 50
0.000000
 51
90.000000
  0
LINE
  8
1
 62
7
  6
CONTINUOUS
 10
224.074702
 20
131.219800
 11
228.074702
 21
131.219800
  0
ARC
  8
1
 62
7
  6
CONTINUOUS
 10
224.074702
 20
127.219800
 40
4.000000
 50
90.000000
 51
180.000000
  0
LINE
  8
1
 62
7
  6
CONTINUOUS
 10
243.451095
 20
131.219800
 11
243.451095
 21
129.219800
  0
LINE
  8
1
 62
7
  6
CONTINUOUS
 10
243.451095
 20
129.219800
 11
244.357569
 21
129.219800
  0
LINE
  8
1
 62
7
  6
CONTINUOUS
 10
244.357569
 20
129.219800
 11
244.357569
 21
131.219800
  0
LINE
  8
1
 62
7
  6
CONTINUOUS
 10
244.357569
 20
131.219800
 11
243.451095
 21
131.219800
  0
ARC
  8
1
 62
7
  6
CONTINUOUS
 10
245.951196
 20
127.219800
 40
4.000000
 50
0.000000
 51
90.000000
  0
LINE
  8
1
 62
7
  6
CONTINUOUS
 10
241.951196
 20
131.219800
 11
245.951196
 21
131.219800
  0
ARC
  8
1
 62
7
  6
CONTINUOUS
 10
241.951196
 20
127.219800
 40
4.000000
 50
90.000000
 51
180.000000
  0
LINE
  8
1
 62
7
  6
CONTINUOUS
 10
261.260717
 20
131.219800
 11
261.260717
 21
129.219800
  0
LINE
  8
1
 62
7
  6
CONTINUOUS
 10
261.260717
 20
129.219800
 11
262.167191
 21
129.219800
  0
LINE
  8
1
 62
7
  6
CONTINUOUS
 10
262.167191
 20
129.219800
 11
262.167191
 21
131.219800
  0
LINE
  8
1
 62
7
  6
CONTINUOUS
 10
262.167191
 20
131.219800
 11
261.260717
 21
131.219800
  0
ARC
  8
1
 62
7
  6
CONTINUOUS
 10
263.760818
 20
127.219800
 40
4.000000
 50
0.000000
 51
90.000000
  0
LINE
  8
1
 62
7
  6
CONTINUOUS
 10
259.760818
 20
131.219800
 11
263.760818
 21
131.219800
  0
ARC
  8
1
 62
7
  6
CONTINUOUS
 10
259.760818
 20
127.219800
 40
4.000000
 50
90.000000
 51
180.000000
  0
LINE
  8
1
 62
7
  6
CONTINUOUS
 10
182.760818
 20
127.219800
 11
196.760818
 21
127.219800
  0
LINE
  8
1
 62
7
  6
CONTINUOUS
 10
200.760818
 20
127.219800
 11
214.760818
 21
127.219800
  0
LINE
  8
1
 62
7
  6
CONTINUOUS
 10
218.760818
 20
127.219800
 11
232.760818
 21
127.219800
  0
LINE
  8
1
 62
7
  6
CONTINUOUS
 10
236.760818
 20
127.219800
 11
250.760818
 21
127.219800
  0
LINE
  8
1
 62
7
  6
CONTINUOUS
 10
254.760818
 20
127.219800
 11
268.760818
 21
127.219800
  0
LINE
  8
1
 62
7
  6
CONTINUOUS
 10
182.760818
 20
125.219800
 11
196.760818
 21
125.219800
  0
LINE
  8
1
 62
7
  6
CONTINUOUS
 10
200.760818
 20
125.219800
 11
214.760818
 21
125.219800
  0
LINE
  8
1
 62
7
  6
CONTINUOUS
 10
218.760818
 20
125.219800
 11
232.760818
 21
125.219800
  0
LINE
  8
1
 62
7
  6
CONTINUOUS
 10
236.760818
 20
125.219800
 11
250.760818
 21
125.219800
  0
LINE
  8
1
 62
7
  6
CONTINUOUS
 10
254.760818
 20
125.219800
 11
268.760818
 21
125.219800
  0
LINE
  8
1
 62
7
  6
CONTINUOUS
 10
182.760818
 20
116.219800
 11
196.760818
 21
116.219800
  0
LINE
  8
1
 62
7
  6
CONTINUOUS
 10
200.760818
 20
116.219800
 11
214.760818
 21
116.219800
  0
LINE
  8
1
 62
7
  6
CONTINUOUS
 10
218.760818
 20
116.219800
 11
232.760818
 21
116.219800
  0
LINE
  8
1
 62
7
  6
CONTINUOUS
 10
236.760818
 20
116.219800
 11
250.760818
 21
116.219800
  0
LINE
  8
1
 62
7
  6
CONTINUOUS
 10
254.760818
 20
116.219800
 11
268.760818
 21
116.219800
  0
LINE
  8
1
 62
7
  6
CONTINUOUS
 10
182.760818
 20
124.219800
 11
182.760818
 21
112.219800
  0
LINE
  8
1
 62
7
  6
CONTINUOUS
 10
182.760818
 20
112.219800
 11
196.760818
 21
112.219800
  0
LINE
  8
1
 62
7
  6
CONTINUOUS
 10
196.760818
 20
112.219800
 11
196.760818
 21
124.219800
  0
LINE
  8
1
 62
7
  6
CONTINUOUS
 10
196.760818
 20
124.219800
 11
182.760818
 21
124.219800
  0
LINE
  8
1
 62
7
  6
CONTINUOUS
 10
200.760818
 20
124.219800
 11
200.760818
 21
112.219800
  0
LINE
  8
1
 62
7
  6
CONTINUOUS
 10
200.760818
 20
112.219800
 11
214.760818
 21
112.219800
  0
LINE
  8
1
 62
7
  6
CONTINUOUS
 10
214.760818
 20
112.219800
 11
214.760818
 21
124.219800
  0
LINE
  8
1
 62
7
  6
CONTINUOUS
 10
214.760818
 20
124.219800
 11
200.760818
 21
124.219800
  0
LINE
  8
1
 62
7
  6
CONTINUOUS
 10
218.760818
 20
124.219800
 11
218.760818
 21
112.219800
  0
LINE
  8
1
 62
7
  6
CONTINUOUS
 10
218.760818
 20
112.219800
 11
232.760818
 21
112.219800
  0
LINE
  8
1
 62
7
  6
CONTINUOUS
 10
232.760818
 20
112.219800
 11
232.760818
 21
124.219800
  0
LINE
  8
1
 62
7
  6
CONTINUOUS
 10
232.760818
 20
124.219800
 11
218.760818
 21
124.219800
  0
LINE
  8
1
 62
7
  6
CONTINUOUS
 10
236.760818
 20
124.219800
 11
236.760818
 21
112.219800
  0
LINE
  8
1
 62
7
  6
CONTINUOUS
 10
236.760818
 20
112.219800
 11
250.760818
 21
112.219800
  0
LINE
  8
1
 62
7
  6
CONTINUOUS
 10
250.760818
 20
112.219800
 11
250.760818
 21
124.219800
  0
LINE
  8
1
 62
7
  6
CONTINUOUS
 10
250.760818
 20
124.219800
 11
236.760818
 21
124.219800
  0
LINE
  8
1
 62
7
  6
CONTINUOUS
 10
254.760818
 20
124.219800
 11
254.760818
 21
112.219800
  0
LINE
  8
1
 62
7
  6
CONTINUOUS
 10
254.760818
 20
112.219800
 11
268.760818
 21
112.219800
  0
LINE
  8
1
 62
7
  6
CONTINUOUS
 10
268.760818
 20
112.219800
 11
268.760818
 21
124.219800
  0
LINE
  8
1
 62
7
  6
CONTINUOUS
 10
268.760818
 20
124.219800
 11
254.760818
 21
124.219800
  0
LINE
  8
1
 62
7
  6
CONTINUOUS
 10
176.760818
 20
74.219800
 11
272.760818
 21
74.219800
  0
LINE
  8
1
 62
7
  6
CONTINUOUS
 10
272.760818
 20
74.219800
 11
176.760818
 21
74.219800
  0
LINE
  8
1
 62
7
  6
CONTINUOUS
 10
176.760818
 20
84.219800
 11
272.760818
 21
84.219800
  0
LINE
  8
1
 62
7
  6
CONTINUOUS
 10
272.760818
 20
90.219800
 11
176.760818
 21
90.219800
  0
LINE
  8
1
 62
7
  6
CONTINUOUS
 10
176.760818
 20
100.219800
 11
272.760818
 21
100.219800
  0
ARC
  8
1
 62
7
  6
CONTINUOUS
 10
233.720341
 20
257.219800
 40
1.000000
 50
-90.000000
 51
0.000000
  0
LINE
  8
1
 62
7
  6
CONTINUOUS
 10
217.524132
 20
256.219800
 11
233.720341
 21
256.219800
  0
LINE
  8
1
 62
7
  6
CONTINUOUS
 10
234.720341
 20
257.219800
 11
234.720341
 21
270.219800
  0
ARC
  8
1
 62
7
  6
CONTINUOUS
 10
217.524132
 20
257.219800
 40
1.000000
 50
180.000000
 51
-90.000000
  0
LINE
  8
1
 62
7
  6
CONTINUOUS
 10
216.524132
 20
270.219800
 11
216.524132
 21
257.219800
  0
TEXT
  8
1
 62
7
  6
CONTINUOUS
 10
256.149651
 20
384.352787
 40
4.000000
 41
1.000000
  1
出力
  7
KANJI
 50
0.000000
 51
0.000000
  0
CIRCLE
  8
1
 62
7
  6
CONTINUOUS
 10
259.711055
 20
391.638976
 40
3.007964
  0
TEXT
  8
1
 62
7
  6
CONTINUOUS
 10
247.421501
 20
367.822336
 40
4.000000
 41
1.000000
  1
自動
  7
KANJI
 50
0.000000
 51
0.000000
  0
TEXT
  8
1
 62
7
  6
CONTINUOUS
 10
251.625939
 20
361.919951
 40
4.000000
 41
1.000000
  1
切
  7
KANJI
 50
0.000000
 51
0.000000
  0
TEXT
  8
1
 62
7
  6
CONTINUOUS
 10
251.625939
 20
374.694976
 40
4.000000
 41
1.000000
  1
入
  7
KANJI
 50
0.000000
 51
0.000000
  0
LINE
  8
1
 62
7
  6
CONTINUOUS
 10
256.760818
 20
370.724243
 11
256.760818
 21
369.834843
  0
LINE
  8
1
 62
7
  6
CONTINUOUS
 10
256.760818
 20
369.834843
 11
262.760818
 21
369.834843
  0
LINE
  8
1
 62
7
  6
CONTINUOUS
 10
262.760818
 20
369.834843
 11
262.760818
 21
370.724243
  0
LINE
  8
1
 62
7
  6
CONTINUOUS
 10
262.760818
 20
370.724243
 11
256.760818
 21
370.724243
  0
LINE
  8
1
 62
7
  6
CONTINUOUS
 10
256.760818
 20
373.775990
 11
256.760818
 21
366.763396
  0
LINE
  8
1
 62
7
  6
CONTINUOUS
 10
256.760818
 20
366.763396
 11
262.760818
 21
366.763396
  0
LINE
  8
1
 62
7
  6
CONTINUOUS
 10
262.760818
 20
366.763396
 11
262.760818
 21
373.775990
  0
LINE
  8
1
 62
7
  6
CONTINUOUS
 10
262.760818
 20
373.775990
 11
256.760818
 21
373.775990
  0
LINE
  8
1
 62
7
  6
CONTINUOUS
 10
256.760818
 20
378.276609
 11
256.760818
 21
361.006790
  0
LINE
  8
1
 62
7
  6
CONTINUOUS
 10
256.760818
 20
361.006790
 11
262.760818
 21
361.006790
  0
LINE
  8
1
 62
7
  6
CONTINUOUS
 10
262.760818
 20
361.006790
 11
262.760818
 21
378.276609
  0
LINE
  8
1
 62
7
  6
CONTINUOUS
 10
262.760818
 20
378.276609
 11
256.760818
 21
378.276609
  0
ARC
  8
1
 62
7
  6
CONTINUOUS
 10
185.160818
 20
358.619800
 40
0.400000
 50
180.000000
 51
-90.000000
  0
LINE
  8
1
 62
7
  6
CONTINUOUS
 10
238.360818
 20
358.219800
 11
185.160818
 21
358.219800
  0
ARC
  8
1
 62
7
  6
CONTINUOUS
 10
238.360818
 20
358.619800
 40
0.400000
 50
-90.000000
 51
0.000000
  0
LINE
  8
1
 62
7
  6
CONTINUOUS
 10
238.760818
 20
391.819800
 11
238.760818
 21
358.619800
  0
ARC
  8
1
 62
7
  6
CONTINUOUS
 10
238.360818
 20
391.819800
 40
0.400000
 50
0.000000
 51
90.000000
  0
LINE
  8
1
 62
7
  6
CONTINUOUS
 10
185.160818
 20
392.219800
 11
238.360818
 21
392.219800
  0
LINE
  8
1
 62
7
  6
CONTINUOUS
 10
184.760818
 20
358.619800
 11
184.760818
 21
391.819800
  0
ARC
  8
1
 62
7
  6
CONTINUOUS
 10
185.160818
 20
391.819800
 40
0.400000
 50
90.000000
 51
180.000000
  0
TEXT
  8
1
 62
7
  6
CONTINUOUS
 10
257.625939
 20
350.438601
 40
4.000000
 41
1.000000
  1
日
  7
KANJI
 50
0.000000
 51
0.000000
  0
TEXT
  8
1
 62
7
  6
CONTINUOUS
 10
245.625939
 20
350.438601
 40
4.000000
 41
1.000000
  1
土
  7
KANJI
 50
0.000000
 51
0.000000
  0
TEXT
  8
1
 62
7
  6
CONTINUOUS
 10
233.625939
 20
350.438601
 40
4.000000
 41
1.000000
  1
金
  7
KANJI
 50
0.000000
 51
0.000000
  0
TEXT
  8
1
 62
7
  6
CONTINUOUS
 10
221.625939
 20
350.438601
 40
4.000000
 41
1.000000
  1
木
  7
KANJI
 50
0.000000
 51
0.000000
  0
TEXT
  8
1
 62
7
  6
CONTINUOUS
 10
209.625939
 20
350.438601
 40
4.000000
 41
1.000000
  1
水
  7
KANJI
 50
0.000000
 51
0.000000
  0
TEXT
  8
1
 62
7
  6
CONTINUOUS
 10
197.625939
 20
350.438601
 40
4.000000
 41
1.000000
  1
火
  7
KANJI
 50
0.000000
 51
0.000000
  0
ARC
  8
1
 62
7
  6
CONTINUOUS
 10
257.160818
 20
344.619800
 40
0.400000
 50
180.000000
 51
-90.000000
  0
LINE
  8
1
 62
7
  6
CONTINUOUS
 10
257.160818
 20
344.219800
 11
262.360818
 21
344.219800
  0
ARC
  8
1
 62
7
  6
CONTINUOUS
 10
262.360818
 20
344.619800
 40
0.400000
 50
-90.000000
 51
0.000000
  0
LINE
  8
1
 62
7
  6
CONTINUOUS
 10
262.760818
 20
344.619800
 11
262.760818
 21
349.819800
  0
ARC
  8
1
 62
7
  6
CONTINUOUS
 10
262.360818
 20
349.819800
 40
0.400000
 50
0.000000
 51
90.000000
  0
LINE
  8
1
 62
7
  6
CONTINUOUS
 10
262.360818
 20
350.219800
 11
257.160818
 21
350.219800
  0
LINE
  8
1
 62
7
  6
CONTINUOUS
 10
256.760818
 20
349.819800
 11
256.760818
 21
344.619800
  0
ARC
  8
1
 62
7
  6
CONTINUOUS
 10
257.160818
 20
349.819800
 40
0.400000
 50
90.000000
 51
180.000000
  0
ARC
  8
1
 62
7
  6
CONTINUOUS
 10
245.160818
 20
344.619800
 40
0.400000
 50
180.000000
 51
-90.000000
  0
LINE
  8
1
 62
7
  6
CONTINUOUS
 10
245.160818
 20
344.219800
 11
250.360818
 21
344.219800
  0
ARC
  8
1
 62
7
  6
CONTINUOUS
 10
250.360818
 20
344.619800
 40
0.400000
 50
-90.000000
 51
0.000000
  0
LINE
  8
1
 62
7
  6
CONTINUOUS
 10
250.760818
 20
344.619800
 11
250.760818
 21
349.819800
  0
ARC
  8
1
 62
7
  6
CONTINUOUS
 10
250.360818
 20
349.819800
 40
0.400000
 50
0.000000
 51
90.000000
  0
LINE
  8
1
 62
7
  6
CONTINUOUS
 10
250.360818
 20
350.219800
 11
245.160818
 21
350.219800
  0
LINE
  8
1
 62
7
  6
CONTINUOUS
 10
244.760818
 20
349.819800
 11
244.760818
 21
344.619800
  0
ARC
  8
1
 62
7
  6
CONTINUOUS
 10
245.160818
 20
349.819800
 40
0.400000
 50
90.000000
 51
180.000000
  0
ARC
  8
1
 62
7
  6
CONTINUOUS
 10
233.160818
 20
344.619800
 40
0.400000
 50
180.000000
 51
-90.000000
  0
LINE
  8
1
 62
7
  6
CONTINUOUS
 10
233.160818
 20
344.219800
 11
238.360818
 21
344.219800
  0
ARC
  8
1
 62
7
  6
CONTINUOUS
 10
238.360818
 20
344.619800
 40
0.400000
 50
-90.000000
 51
0.000000
  0
LINE
  8
1
 62
7
  6
CONTINUOUS
 10
238.760818
 20
344.619800
 11
238.760818
 21
349.819800
  0
ARC
  8
1
 62
7
  6
CONTINUOUS
 10
238.360818
 20
349.819800
 40
0.400000
 50
0.000000
 51
90.000000
  0
LINE
  8
1
 62
7
  6
CONTINUOUS
 10
238.360818
 20
350.219800
 11
233.160818
 21
350.219800
  0
LINE
  8
1
 62
7
  6
CONTINUOUS
 10
232.760818
 20
349.819800
 11
232.760818
 21
344.619800
  0
ARC
  8
1
 62
7
  6
CONTINUOUS
 10
233.160818
 20
349.819800
 40
0.400000
 50
90.000000
 51
180.000000
  0
ARC
  8
1
 62
7
  6
CONTINUOUS
 10
221.160818
 20
344.619800
 40
0.400000
 50
180.000000
 51
-90.000000
  0
LINE
  8
1
 62
7
  6
CONTINUOUS
 10
221.160818
 20
344.219800
 11
226.360818
 21
344.219800
  0
ARC
  8
1
 62
7
  6
CONTINUOUS
 10
226.360818
 20
344.619800
 40
0.400000
 50
-90.000000
 51
0.000000
  0
LINE
  8
1
 62
7
  6
CONTINUOUS
 10
226.760818
 20
344.619800
 11
226.760818
 21
349.819800
  0
ARC
  8
1
 62
7
  6
CONTINUOUS
 10
226.360818
 20
349.819800
 40
0.400000
 50
0.000000
 51
90.000000
  0
LINE
  8
1
 62
7
  6
CONTINUOUS
 10
226.360818
 20
350.219800
 11
221.160818
 21
350.219800
  0
LINE
  8
1
 62
7
  6
CONTINUOUS
 10
220.760818
 20
349.819800
 11
220.760818
 21
344.619800
  0
ARC
  8
1
 62
7
  6
CONTINUOUS
 10
221.160818
 20
349.819800
 40
0.400000
 50
90.000000
 51
180.000000
  0
ARC
  8
1
 62
7
  6
CONTINUOUS
 10
209.160818
 20
344.619800
 40
0.400000
 50
180.000000
 51
-90.000000
  0
LINE
  8
1
 62
7
  6
CONTINUOUS
 10
209.160818
 20
344.219800
 11
214.360818
 21
344.219800
  0
ARC
  8
1
 62
7
  6
CONTINUOUS
 10
214.360818
 20
344.619800
 40
0.400000
 50
-90.000000
 51
0.000000
  0
LINE
  8
1
 62
7
  6
CONTINUOUS
 10
214.760818
 20
344.619800
 11
214.760818
 21
349.819800
  0
ARC
  8
1
 62
7
  6
CONTINUOUS
 10
214.360818
 20
349.819800
 40
0.400000
 50
0.000000
 51
90.000000
  0
LINE
  8
1
 62
7
  6
CONTINUOUS
 10
214.360818
 20
350.219800
 11
209.160818
 21
350.219800
  0
LINE
  8
1
 62
7
  6
CONTINUOUS
 10
208.760818
 20
349.819800
 11
208.760818
 21
344.619800
  0
ARC
  8
1
 62
7
  6
CONTINUOUS
 10
209.160818
 20
349.819800
 40
0.400000
 50
90.000000
 51
180.000000
  0
ARC
  8
1
 62
7
  6
CONTINUOUS
 10
197.160818
 20
344.619800
 40
0.400000
 50
180.000000
 51
-90.000000
  0
LINE
  8
1
 62
7
  6
CONTINUOUS
 10
197.160818
 20
344.219800
 11
202.360818
 21
344.219800
  0
ARC
  8
1
 62
7
  6
CONTINUOUS
 10
202.360818
 20
344.619800
 40
0.400000
 50
-90.000000
 51
0.000000
  0
LINE
  8
1
 62
7
  6
CONTINUOUS
 10
202.760818
 20
344.619800
 11
202.760818
 21
349.819800
  0
ARC
  8
1
 62
7
  6
CONTINUOUS
 10
202.360818
 20
349.819800
 40
0.400000
 50
0.000000
 51
90.000000
  0
LINE
  8
1
 62
7
  6
CONTINUOUS
 10
202.360818
 20
350.219800
 11
197.160818
 21
350.219800
  0
LINE
  8
1
 62
7
  6
CONTINUOUS
 10
196.760818
 20
349.819800
 11
196.760818
 21
344.619800
  0
ARC
  8
1
 62
7
  6
CONTINUOUS
 10
197.160818
 20
349.819800
 40
0.400000
 50
90.000000
 51
180.000000
  0
TEXT
  8
1
 62
7
  6
CONTINUOUS
 10
185.625939
 20
350.438601
 40
4.000000
 41
1.000000
  1
月
  7
KANJI
 50
0.000000
 51
0.000000
  0
ARC
  8
1
 62
7
  6
CONTINUOUS
 10
185.160818
 20
344.619800
 40
0.400000
 50
180.000000
 51
-90.000000
  0
LINE
  8
1
 62
7
  6
CONTINUOUS
 10
185.160818
 20
344.219800
 11
190.360818
 21
344.219800
  0
ARC
  8
1
 62
7
  6
CONTINUOUS
 10
190.360818
 20
344.619800
 40
0.400000
 50
-90.000000
 51
0.000000
  0
LINE
  8
1
 62
7
  6
CONTINUOUS
 10
190.760818
 20
344.619800
 11
190.760818
 21
349.819800
  0
ARC
  8
1
 62
7
  6
CONTINUOUS
 10
190.360818
 20
349.819800
 40
0.400000
 50
0.000000
 51
90.000000
  0
LINE
  8
1
 62
7
  6
CONTINUOUS
 10
190.360818
 20
350.219800
 11
185.160818
 21
350.219800
  0
LINE
  8
1
 62
7
  6
CONTINUOUS
 10
184.760818
 20
349.819800
 11
184.760818
 21
344.619800
  0
ARC
  8
1
 62
7
  6
CONTINUOUS
 10
185.160818
 20
349.819800
 40
0.400000
 50
90.000000
 51
180.000000
  0
TEXT
  8
1
 62
7
  6
CONTINUOUS
 10
249.239282
 20
338.438601
 40
4.000000
 41
1.000000
  1
リセット
  7
KANJI
 50
0.000000
 51
0.000000
  0
TEXT
  8
1
 62
7
  6
CONTINUOUS
 10
231.684521
 20
338.438601
 40
4.000000
 41
0.600000
  1
+1h
  7
KANJI
 50
0.000000
 51
0.000000
  0
CIRCLE
  8
1
 62
7
  6
CONTINUOUS
 10
257.230622
 20
334.984852
 40
1.659581
  0
CIRCLE
  8
1
 62
7
  6
CONTINUOUS
 10
257.344603
 20
334.984852
 40
2.786115
  0
CIRCLE
  8
1
 62
7
  6
CONTINUOUS
 10
234.890445
 20
334.984852
 40
1.659581
  0
CIRCLE
  8
1
 62
7
  6
CONTINUOUS
 10
235.004425
 20
334.984852
 40
2.786115
  0
TEXT
  8
1
 62
7
  6
CONTINUOUS
 10
209.684521
 20
338.438601
 40
4.000000
 41
1.000000
  1
取消
  7
KANJI
 50
0.000000
 51
0.000000
  0
TEXT
  8
1
 62
7
  6
CONTINUOUS
 10
187.684521
 20
338.438601
 40
4.000000
 41
1.000000
  1
呼出
  7
KANJI
 50
0.000000
 51
0.000000
  0
TEXT
  8
1
 62
7
  6
CONTINUOUS
 10
232.995297
 20
326.438601
 40
4.000000
 41
1.000000
  1
分
  7
KANJI
 50
0.000000
 51
0.000000
  0
TEXT
  8
1
 62
7
  6
CONTINUOUS
 10
210.596365
 20
326.438601
 40
4.000000
 41
1.000000
  1
時
  7
KANJI
 50
0.000000
 51
0.000000
  0
TEXT
  8
1
 62
7
  6
CONTINUOUS
 10
253.684521
 20
326.438601
 40
4.000000
 41
1.000000
  1
設定
  7
KANJI
 50
0.000000
 51
0.000000
  0
ARC
  8
1
 62
7
  6
CONTINUOUS
 10
207.160818
 20
337.819800
 40
0.400000
 50
90.000000
 51
180.000000
  0
LINE
  8
1
 62
7
  6
CONTINUOUS
 10
206.760818
 20
337.819800
 11
206.760818
 21
332.619800
  0
ARC
  8
1
 62
7
  6
CONTINUOUS
 10
207.160818
 20
332.619800
 40
0.400000
 50
180.000000
 51
-90.000000
  0
LINE
  8
1
 62
7
  6
CONTINUOUS
 10
207.160818
 20
332.219800
 11
220.360818
 21
332.219800
  0
ARC
  8
1
 62
7
  6
CONTINUOUS
 10
220.360818
 20
332.619800
 40
0.400000
 50
-90.000000
 51
0.000000
  0
LINE
  8
1
 62
7
  6
CONTINUOUS
 10
220.760818
 20
332.619800
 11
220.760818
 21
337.819800
  0
LINE
  8
1
 62
7
  6
CONTINUOUS
 10
220.360818
 20
338.219800
 11
207.160818
 21
338.219800
  0
ARC
  8
1
 62
7
  6
CONTINUOUS
 10
220.360818
 20
337.819800
 40
0.400000
 50
0.000000
 51
90.000000
  0
ARC
  8
1
 62
7
  6
CONTINUOUS
 10
185.160818
 20
337.819800
 40
0.400000
 50
90.000000
 51
180.000000
  0
LINE
  8
1
 62
7
  6
CONTINUOUS
 10
184.760818
 20
337.819800
 11
184.760818
 21
332.619800
  0
ARC
  8
1
 62
7
  6
CONTINUOUS
 10
185.160818
 20
332.619800
 40
0.400000
 50
180.000000
 51
-90.000000
  0
LINE
  8
1
 62
7
  6
CONTINUOUS
 10
185.160818
 20
332.219800
 11
198.360818
 21
332.219800
  0
ARC
  8
1
 62
7
  6
CONTINUOUS
 10
198.360818
 20
332.619800
 40
0.400000
 50
-90.000000
 51
0.000000
  0
LINE
  8
1
 62
7
  6
CONTINUOUS
 10
198.760818
 20
332.619800
 11
198.760818
 21
337.819800
  0
LINE
  8
1
 62
7
  6
CONTINUOUS
 10
198.360818
 20
338.219800
 11
185.160818
 21
338.219800
  0
ARC
  8
1
 62
7
  6
CONTINUOUS
 10
198.360818
 20
337.819800
 40
0.400000
 50
0.000000
 51
90.000000
  0
ARC
  8
1
 62
7
  6
CONTINUOUS
 10
251.160818
 20
325.819800
 40
0.400000
 50
90.000000
 51
180.000000
  0
LINE
  8
1
 62
7
  6
CONTINUOUS
 10
250.760818
 20
325.819800
 11
250.760818
 21
320.619800
  0
ARC
  8
1
 62
7
  6
CONTINUOUS
 10
251.160818
 20
320.619800
 40
0.400000
 50
180.000000
 51
-90.000000
  0
LINE
  8
1
 62
7
  6
CONTINUOUS
 10
251.160818
 20
320.219800
 11
264.360818
 21
320.219800
  0
ARC
  8
1
 62
7
  6
CONTINUOUS
 10
264.360818
 20
320.619800
 40
0.400000
 50
-90.000000
 51
0.000000
  0
LINE
  8
1
 62
7
  6
CONTINUOUS
 10
264.760818
 20
320.619800
 11
264.760818
 21
325.819800
  0
LINE
  8
1
 62
7
  6
CONTINUOUS
 10
264.360818
 20
326.219800
 11
251.160818
 21
326.219800
  0
ARC
  8
1
 62
7
  6
CONTINUOUS
 10
264.360818
 20
325.819800
 40
0.400000
 50
0.000000
 51
90.000000
  0
ARC
  8
1
 62
7
  6
CONTINUOUS
 10
229.160818
 20
325.819800
 40
0.400000
 50
90.000000
 51
180.000000
  0
LINE
  8
1
 62
7
  6
CONTINUOUS
 10
228.760818
 20
325.819800
 11
228.760818
 21
320.619800
  0
ARC
  8
1
 62
7
  6
CONTINUOUS
 10
229.160818
 20
320.619800
 40
0.400000
 50
180.000000
 51
-90.000000
  0
LINE
  8
1
 62
7
  6
CONTINUOUS
 10
229.160818
 20
320.219800
 11
242.360818
 21
320.219800
  0
ARC
  8
1
 62
7
  6
CONTINUOUS
 10
242.360818
 20
320.619800
 40
0.400000
 50
-90.000000
 51
0.000000
  0
LINE
  8
1
 62
7
  6
CONTINUOUS
 10
242.760818
 20
320.619800
 11
242.760818
 21
325.819800
  0
LINE
  8
1
 62
7
  6
CONTINUOUS
 10
242.360818
 20
326.219800
 11
229.160818
 21
326.219800
  0
ARC
  8
1
 62
7
  6
CONTINUOUS
 10
242.360818
 20
325.819800
 40
0.400000
 50
0.000000
 51
90.000000
  0
ARC
  8
1
 62
7
  6
CONTINUOUS
 10
207.160818
 20
325.819800
 40
0.400000
 50
90.000000
 51
180.000000
  0
LINE
  8
1
 62
7
  6
CONTINUOUS
 10
206.760818
 20
325.819800
 11
206.760818
 21
320.619800
  0
ARC
  8
1
 62
7
  6
CONTINUOUS
 10
207.160818
 20
320.619800
 40
0.400000
 50
180.000000
 51
-90.000000
  0
LINE
  8
1
 62
7
  6
CONTINUOUS
 10
207.160818
 20
320.219800
 11
220.360818
 21
320.219800
  0
ARC
  8
1
 62
7
  6
CONTINUOUS
 10
220.360818
 20
320.619800
 40
0.400000
 50
-90.000000
 51
0.000000
  0
LINE
  8
1
 62
7
  6
CONTINUOUS
 10
220.760818
 20
320.619800
 11
220.760818
 21
325.819800
  0
LINE
  8
1
 62
7
  6
CONTINUOUS
 10
220.360818
 20
326.219800
 11
207.160818
 21
326.219800
  0
ARC
  8
1
 62
7
  6
CONTINUOUS
 10
220.360818
 20
325.819800
 40
0.400000
 50
0.000000
 51
90.000000
  0
TEXT
  8
1
 62
7
  6
CONTINUOUS
 10
187.684521
 20
326.438601
 40
4.000000
 41
0.600000
  1
ﾓｰﾄﾞ
  7
KANJI
 50
0.000000
 51
0.000000
  0
ARC
  8
1
 62
7
  6
CONTINUOUS
 10
185.160818
 20
325.819800
 40
0.400000
 50
90.000000
 51
180.000000
  0
LINE
  8
1
 62
7
  6
CONTINUOUS
 10
184.760818
 20
325.819800
 11
184.760818
 21
320.619800
  0
ARC
  8
1
 62
7
  6
CONTINUOUS
 10
185.160818
 20
320.619800
 40
0.400000
 50
180.000000
 51
-90.000000
  0
LINE
  8
1
 62
7
  6
CONTINUOUS
 10
185.160818
 20
320.219800
 11
198.360818
 21
320.219800
  0
ARC
  8
1
 62
7
  6
CONTINUOUS
 10
198.360818
 20
320.619800
 40
0.400000
 50
-90.000000
 51
0.000000
  0
LINE
  8
1
 62
7
  6
CONTINUOUS
 10
198.760818
 20
320.619800
 11
198.760818
 21
325.819800
  0
LINE
  8
1
 62
7
  6
CONTINUOUS
 10
198.360818
 20
326.219800
 11
185.160818
 21
326.219800
  0
ARC
  8
1
 62
7
  6
CONTINUOUS
 10
198.360818
 20
325.819800
 40
0.400000
 50
0.000000
 51
90.000000
  0
CIRCLE
  8
1
 62
7
  6
CONTINUOUS
 10
224.760818
 20
447.219800
 40
2.597931
  0
CIRCLE
  8
1
 62
7
  6
CONTINUOUS
 10
224.760818
 20
447.219800
 40
4.300000
  0
LINE
  8
1
 62
7
  6
CONTINUOUS
 10
174.760818
 20
436.219800
 11
274.760818
 21
436.219800
  0
TEXT
  8
1
 62
7
  6
CONTINUOUS
 10
258.653436
 20
296.187507
 40
6.000000
 41
0.566666
  1
NC
  7
KANJI
 50
0.000000
 51
0.000000
  0
TEXT
  8
1
 62
7
  6
CONTINUOUS
 10
240.653436
 20
296.187507
 40
6.000000
 41
0.566666
  1
NO
  7
KANJI
 50
0.000000
 51
0.000000
  0
TEXT
  8
1
 62
7
  6
CONTINUOUS
 10
222.653436
 20
296.187507
 40
6.000000
 41
0.566666
  1
COM
  7
KANJI
 50
0.000000
 51
0.000000
  0
TEXT
  8
1
 62
7
  6
CONTINUOUS
 10
204.653436
 20
296.187507
 40
6.000000
 41
0.566666
  1
S1
  7
KANJI
 50
0.000000
 51
0.000000
  0
TEXT
  8
1
 62
7
  6
CONTINUOUS
 10
186.653436
 20
296.187507
 40
6.000000
 41
0.566666
  1
S1
  7
KANJI
 50
0.000000
 51
0.000000
  0
CIRCLE
  8
1
 62
7
  6
CONTINUOUS
 10
181.092079
 20
305.901194
 40
0.711396
  0
CIRCLE
  8
1
 62
7
  6
CONTINUOUS
 10
181.343595
 20
306.152710
 40
2.943926
  0
LINE
  8
1
 62
7
  6
CONTINUOUS
 10
216.760818
 20
312.219800
 11
174.760818
 21
312.219800
  0
LINE
  8
1
 62
7
  6
CONTINUOUS
 10
178.760818
 20
410.198239
 11
178.760818
 21
316.219800
  0
LINE
  8
1
 62
7
  6
CONTINUOUS
 10
178.760818
 20
316.219800
 11
270.760818
 21
316.219800
  0
LINE
  8
1
 62
7
  6
CONTINUOUS
 10
270.760818
 20
316.219800
 11
270.760818
 21
410.198239
  0
LINE
  8
1
 62
7
  6
CONTINUOUS
 10
270.760818
 20
410.198239
 11
178.760818
 21
410.198239
  0
LINE
  8
1
 62
7
  6
CONTINUOUS
 10
174.760818
 20
412.198239
 11
274.760818
 21
412.198239
  0
LINE
  8
1
 62
7
  6
CONTINUOUS
 10
259.787322
 20
286.794040
 11
259.787322
 21
285.828995
  0
LINE
  8
1
 62
7
  6
CONTINUOUS
 10
263.758856
 20
285.828995
 11
263.758856
 21
286.794040
  0
LINE
  8
1
 62
7
  6
CONTINUOUS
 10
263.758856
 20
286.794040
 11
262.167191
 21
286.794040
  0
LINE
  8
1
 62
7
  6
CONTINUOUS
 10
259.787322
 20
285.828995
 11
261.260717
 21
285.828995
  0
LINE
  8
1
 62
7
  6
CONTINUOUS
 10
262.154557
 20
285.828995
 11
263.758856
 21
285.828995
  0
LINE
  8
1
 62
7
  6
CONTINUOUS
 10
261.260717
 20
286.794040
 11
259.787322
 21
286.794040
  0
LINE
  8
1
 62
7
  6
CONTINUOUS
 10
261.260717
 20
280.217247
 11
262.167191
 21
280.217247
  0
LINE
  8
1
 62
7
  6
CONTINUOUS
 10
262.167191
 20
292.180076
 11
261.260717
 21
292.180076
  0
LINE
  8
1
 62
7
  6
CONTINUOUS
 10
261.260717
 20
292.180076
 11
261.260717
 21
286.794040
  0
LINE
  8
1
 62
7
  6
CONTINUOUS
 10
261.260717
 20
285.828995
 11
261.260717
 21
280.217247
  0
LINE
  8
1
 62
7
  6
CONTINUOUS
 10
262.167191
 20
280.217247
 11
262.167191
 21
285.828995
  0
LINE
  8
1
 62
7
  6
CONTINUOUS
 10
262.167191
 20
286.794040
 11
262.167191
 21
292.180076
  0
LINE
  8
1
 62
7
  6
CONTINUOUS
 10
241.818810
 20
286.821020
 11
241.818810
 21
285.855974
  0
LINE
  8
1
 62
7
  6
CONTINUOUS
 10
245.790344
 20
285.855974
 11
245.790344
 21
286.821020
  0
LINE
  8
1
 62
7
  6
CONTINUOUS
 10
245.790344
 20
286.821020
 11
244.198679
 21
286.821020
  0
LINE
  8
1
 62
7
  6
CONTINUOUS
 10
241.818810
 20
285.855974
 11
243.292205
 21
285.855974
  0
LINE
  8
1
 62
7
  6
CONTINUOUS
 10
244.186045
 20
285.855974
 11
245.790344
 21
285.855974
  0
LINE
  8
1
 62
7
  6
CONTINUOUS
 10
243.292205
 20
286.821020
 11
241.818810
 21
286.821020
  0
LINE
  8
1
 62
7
  6
CONTINUOUS
 10
243.292205
 20
280.244227
 11
244.198679
 21
280.244227
  0
LINE
  8
1
 62
7
  6
CONTINUOUS
 10
244.198679
 20
292.207055
 11
243.292205
 21
292.207055
  0
LINE
  8
1
 62
7
  6
CONTINUOUS
 10
243.292205
 20
292.207055
 11
243.292205
 21
286.821020
  0
LINE
  8
1
 62
7
  6
CONTINUOUS
 10
243.292205
 20
285.855974
 11
243.292205
 21
280.244227
  0
LINE
  8
1
 62
7
  6
CONTINUOUS
 10
244.198679
 20
280.244227
 11
244.198679
 21
285.855974
  0
LINE
  8
1
 62
7
  6
CONTINUOUS
 10
244.198679
 20
286.821020
 11
244.198679
 21
292.207055
  0
LINE
  8
1
 62
7
  6
CONTINUOUS
 10
223.769359
 20
286.794040
 11
223.769359
 21
285.828995
  0
LINE
  8
1
 62
7
  6
CONTINUOUS
 10
227.740893
 20
285.828995
 11
227.740893
 21
286.794040
  0
LINE
  8
1
 62
7
  6
CONTINUOUS
 10
227.740893
 20
286.794040
 11
226.149228
 21
286.794040
  0
LINE
  8
1
 62
7
  6
CONTINUOUS
 10
223.769359
 20
285.828995
 11
225.242754
 21
285.828995
  0
LINE
  8
1
 62
7
  6
CONTINUOUS
 10
226.136594
 20
285.828995
 11
227.740893
 21
285.828995
  0
LINE
  8
1
 62
7
  6
CONTINUOUS
 10
225.242754
 20
286.794040
 11
223.769359
 21
286.794040
  0
LINE
  8
1
 62
7
  6
CONTINUOUS
 10
225.242754
 20
280.217247
 11
226.149228
 21
280.217247
  0
LINE
  8
1
 62
7
  6
CONTINUOUS
 10
226.149228
 20
292.180076
 11
225.242754
 21
292.180076
  0
LINE
  8
1
 62
7
  6
CONTINUOUS
 10
225.242754
 20
292.180076
 11
225.242754
 21
286.794040
  0
LINE
  8
1
 62
7
  6
CONTINUOUS
 10
225.242754
 20
285.828995
 11
225.242754
 21
280.217247
  0
LINE
  8
1
 62
7
  6
CONTINUOUS
 10
226.149228
 20
280.217247
 11
226.149228
 21
285.828995
  0
LINE
  8
1
 62
7
  6
CONTINUOUS
 10
226.149228
 20
286.794040
 11
226.149228
 21
292.180076
  0
LINE
  8
1
 62
7
  6
CONTINUOUS
 10
205.827827
 20
286.794040
 11
205.827827
 21
285.828995
  0
LINE
  8
1
 62
7
  6
CONTINUOUS
 10
209.799361
 20
285.828995
 11
209.799361
 21
286.794040
  0
LINE
  8
1
 62
7
  6
CONTINUOUS
 10
209.799361
 20
286.794040
 11
208.207696
 21
286.794040
  0
LINE
  8
1
 62
7
  6
CONTINUOUS
 10
205.827827
 20
285.828995
 11
207.301222
 21
285.828995
  0
LINE
  8
1
 62
7
  6
CONTINUOUS
 10
208.195062
 20
285.828995
 11
209.799361
 21
285.828995
  0
LINE
  8
1
 62
7
  6
CONTINUOUS
 10
207.301222
 20
286.794040
 11
205.827827
 21
286.794040
  0
LINE
  8
1
 62
7
  6
CONTINUOUS
 10
207.301222
 20
280.217247
 11
208.207696
 21
280.217247
  0
LINE
  8
1
 62
7
  6
CONTINUOUS
 10
208.207696
 20
292.180076
 11
207.301222
 21
292.180076
  0
LINE
  8
1
 62
7
  6
CONTINUOUS
 10
207.301222
 20
292.180076
 11
207.301222
 21
286.794040
  0
LINE
  8
1
 62
7
  6
CONTINUOUS
 10
207.301222
 20
285.828995
 11
207.301222
 21
280.217247
  0
LINE
  8
1
 62
7
  6
CONTINUOUS
 10
208.207696
 20
280.217247
 11
208.207696
 21
285.828995
  0
LINE
  8
1
 62
7
  6
CONTINUOUS
 10
208.207696
 20
286.794040
 11
208.207696
 21
292.180076
  0
LINE
  8
1
 62
7
  6
CONTINUOUS
 10
187.859315
 20
286.821020
 11
187.859315
 21
285.855974
  0
LINE
  8
1
 62
7
  6
CONTINUOUS
 10
191.830849
 20
285.855974
 11
191.830849
 21
286.821020
  0
LINE
  8
1
 62
7
  6
CONTINUOUS
 10
191.830849
 20
286.821020
 11
190.239184
 21
286.821020
  0
LINE
  8
1
 62
7
  6
CONTINUOUS
 10
187.859315
 20
285.855974
 11
189.332710
 21
285.855974
  0
LINE
  8
1
 62
7
  6
CONTINUOUS
 10
190.226550
 20
285.855974
 11
191.830849
 21
285.855974
  0
LINE
  8
1
 62
7
  6
CONTINUOUS
 10
189.332710
 20
286.821020
 11
187.859315
 21
286.821020
  0
LINE
  8
1
 62
7
  6
CONTINUOUS
 10
189.332710
 20
280.244227
 11
190.239184
 21
280.244227
  0
LINE
  8
1
 62
7
  6
CONTINUOUS
 10
190.239184
 20
292.207055
 11
189.332710
 21
292.207055
  0
LINE
  8
1
 62
7
  6
CONTINUOUS
 10
189.332710
 20
292.207055
 11
189.332710
 21
286.821020
  0
LINE
  8
1
 62
7
  6
CONTINUOUS
 10
189.332710
 20
285.855974
 11
189.332710
 21
280.244227
  0
LINE
  8
1
 62
7
  6
CONTINUOUS
 10
190.239184
 20
280.244227
 11
190.239184
 21
285.855974
  0
LINE
  8
1
 62
7
  6
CONTINUOUS
 10
190.239184
 20
286.821020
 11
190.239184
 21
292.207055
  0
LINE
  8
1
 62
7
  6
CONTINUOUS
 10
226.760818
 20
312.219800
 11
216.760818
 21
312.219800
  0
LINE
  8
1
 62
7
  6
CONTINUOUS
 10
250.760818
 20
312.219800
 11
240.760818
 21
312.219800
  0
LINE
  8
1
 62
7
  6
CONTINUOUS
 10
240.760818
 20
312.219800
 11
226.760818
 21
312.219800
  0
LINE
  8
1
 62
7
  6
CONTINUOUS
 10
274.760818
 20
312.219800
 11
264.760818
 21
312.219800
  0
LINE
  8
1
 62
7
  6
CONTINUOUS
 10
264.760818
 20
312.219800
 11
250.760818
 21
312.219800
  0
LINE
  8
1
 62
7
  6
CONTINUOUS
 10
250.760818
 20
295.219800
 11
264.760818
 21
295.219800
  0
LINE
  8
1
 62
7
  6
CONTINUOUS
 10
268.760818
 20
270.219800
 11
268.760818
 21
295.219800
  0
LINE
  8
1
 62
7
  6
CONTINUOUS
 10
254.760818
 20
295.219800
 11
254.760818
 21
270.219800
  0
LINE
  8
1
 62
7
  6
CONTINUOUS
 10
254.760818
 20
270.219800
 11
268.760818
 21
270.219800
  0
LINE
  8
1
 62
7
  6
CONTINUOUS
 10
232.760818
 20
295.219800
 11
232.760818
 21
286.219800
  0
LINE
  8
1
 62
7
  6
CONTINUOUS
 10
218.760818
 20
295.219800
 11
218.760818
 21
270.219800
  0
LINE
  8
1
 62
7
  6
CONTINUOUS
 10
218.760818
 20
270.219800
 11
232.760818
 21
270.219800
  0
LINE
  8
1
 62
7
  6
CONTINUOUS
 10
272.760818
 20
270.219800
 11
176.760818
 21
270.219800
  0
LINE
  8
1
 62
7
  6
CONTINUOUS
 10
174.760818
 20
295.219800
 11
174.760818
 21
468.219800
  0
LINE
  8
1
 62
7
  6
CONTINUOUS
 10
274.760818
 20
468.219800
 11
274.760818
 21
293.219800
  0
LINE
  8
1
 62
7
  6
CONTINUOUS
 10
176.760818
 20
295.219800
 11
176.760818
 21
270.219800
  0
LINE
  8
1
 62
7
  6
CONTINUOUS
 10
182.760818
 20
270.219800
 11
182.760818
 21
286.219800
  0
LINE
  8
1
 62
7
  6
CONTINUOUS
 10
176.760818
 20
270.219800
 11
182.760818
 21
270.219800
  0
LINE
  8
1
 62
7
  6
CONTINUOUS
 10
182.760818
 20
295.219800
 11
182.760818
 21
270.219800
  0
LINE
  8
1
 62
7
  6
CONTINUOUS
 10
196.760818
 20
270.219800
 11
196.760818
 21
295.219800
  0
LINE
  8
1
 62
7
  6
CONTINUOUS
 10
182.760818
 20
270.219800
 11
196.760818
 21
270.219800
  0
LINE
  8
1
 62
7
  6
CONTINUOUS
 10
200.760818
 20
295.219800
 11
200.760818
 21
270.219800
  0
LINE
  8
1
 62
7
  6
CONTINUOUS
 10
214.760818
 20
270.219800
 11
214.760818
 21
295.219800
  0
LINE
  8
1
 62
7
  6
CONTINUOUS
 10
200.760818
 20
270.219800
 11
214.760818
 21
270.219800
  0
LINE
  8
1
 62
7
  6
CONTINUOUS
 10
236.760818
 20
295.219800
 11
236.760818
 21
270.219800
  0
LINE
  8
1
 62
7
  6
CONTINUOUS
 10
250.760818
 20
270.219800
 11
250.760818
 21
295.219800
  0
LINE
  8
1
 62
7
  6
CONTINUOUS
 10
236.760818
 20
270.219800
 11
250.760818
 21
270.219800
  0
LINE
  8
1
 62
7
  6
CONTINUOUS
 10
272.760818
 20
270.219800
 11
272.760818
 21
293.219800
  0
LINE
  8
1
 62
7
  6
CONTINUOUS
 10
268.760818
 20
270.219800
 11
272.760818
 21
270.219800
  0
LINE
  8
1
 62
7
  6
CONTINUOUS
 10
268.760818
 20
286.219800
 11
268.760818
 21
270.219800
  0
LINE
  8
1
 62
7
  6
CONTINUOUS
 10
200.760818
 20
270.219800
 11
200.760818
 21
286.219800
  0
LINE
  8
1
 62
7
  6
CONTINUOUS
 10
196.760818
 20
270.219800
 11
200.760818
 21
270.219800
  0
LINE
  8
1
 62
7
  6
CONTINUOUS
 10
196.760818
 20
286.219800
 11
196.760818
 21
270.219800
  0
LINE
  8
1
 62
7
  6
CONTINUOUS
 10
218.760818
 20
270.219800
 11
218.760818
 21
286.219800
  0
LINE
  8
1
 62
7
  6
CONTINUOUS
 10
214.760818
 20
270.219800
 11
218.760818
 21
270.219800
  0
LINE
  8
1
 62
7
  6
CONTINUOUS
 10
214.760818
 20
286.219800
 11
214.760818
 21
270.219800
  0
LINE
  8
1
 62
7
  6
CONTINUOUS
 10
236.760818
 20
270.219800
 11
236.760818
 21
286.219800
  0
LINE
  8
1
 62
7
  6
CONTINUOUS
 10
232.760818
 20
270.219800
 11
236.760818
 21
270.219800
  0
LINE
  8
1
 62
7
  6
CONTINUOUS
 10
232.760818
 20
286.219800
 11
232.760818
 21
270.219800
  0
LINE
  8
1
 62
7
  6
CONTINUOUS
 10
254.760818
 20
270.219800
 11
254.760818
 21
286.219800
  0
LINE
  8
1
 62
7
  6
CONTINUOUS
 10
250.760818
 20
270.219800
 11
254.760818
 21
270.219800
  0
LINE
  8
1
 62
7
  6
CONTINUOUS
 10
250.760818
 20
286.219800
 11
250.760818
 21
270.219800
  0
LINE
  8
1
 62
7
  6
CONTINUOUS
 10
182.760818
 20
280.219800
 11
196.760818
 21
280.219800
  0
LINE
  8
1
 62
7
  6
CONTINUOUS
 10
196.760818
 20
278.219800
 11
182.760818
 21
278.219800
  0
LINE
  8
1
 62
7
  6
CONTINUOUS
 10
182.760818
 20
276.219800
 11
196.760818
 21
276.219800
  0
LINE
  8
1
 62
7
  6
CONTINUOUS
 10
200.760818
 20
280.219800
 11
214.760818
 21
280.219800
  0
LINE
  8
1
 62
7
  6
CONTINUOUS
 10
214.760818
 20
278.219800
 11
200.760818
 21
278.219800
  0
LINE
  8
1
 62
7
  6
CONTINUOUS
 10
200.760818
 20
276.219800
 11
214.760818
 21
276.219800
  0
LINE
  8
1
 62
7
  6
CONTINUOUS
 10
218.760818
 20
280.219800
 11
232.760818
 21
280.219800
  0
LINE
  8
1
 62
7
  6
CONTINUOUS
 10
232.760818
 20
278.219800
 11
218.760818
 21
278.219800
  0
LINE
  8
1
 62
7
  6
CONTINUOUS
 10
218.760818
 20
276.219800
 11
232.760818
 21
276.219800
  0
LINE
  8
1
 62
7
  6
CONTINUOUS
 10
236.760818
 20
280.219800
 11
250.760818
 21
280.219800
  0
LINE
  8
1
 62
7
  6
CONTINUOUS
 10
250.760818
 20
278.219800
 11
236.760818
 21
278.219800
  0
LINE
  8
1
 62
7
  6
CONTINUOUS
 10
236.760818
 20
276.219800
 11
250.760818
 21
276.219800
  0
LINE
  8
1
 62
7
  6
CONTINUOUS
 10
274.760818
 20
293.219800
 11
268.760818
 21
293.219800
  0
LINE
  8
1
 62
7
  6
CONTINUOUS
 10
250.760818
 20
293.219800
 11
236.760818
 21
293.219800
  0
LINE
  8
1
 62
7
  6
CONTINUOUS
 10
196.760818
 20
293.219800
 11
182.760818
 21
293.219800
  0
LINE
  8
1
 62
7
  6
CONTINUOUS
 10
214.760818
 20
293.219800
 11
200.760818
 21
293.219800
  0
LINE
  8
1
 62
7
  6
CONTINUOUS
 10
232.760818
 20
293.219800
 11
218.760818
 21
293.219800
  0
LINE
  8
1
 62
7
  6
CONTINUOUS
 10
268.760818
 20
293.219800
 11
254.760818
 21
293.219800
  0
LINE
  8
1
 62
7
  6
CONTINUOUS
 10
274.760818
 20
295.219800
 11
174.760818
 21
295.219800
  0
CIRCLE
  8
1
 62
7
  6
CONTINUOUS
 10
189.760818
 20
286.219800
 40
6.000000
  0
CIRCLE
  8
1
 62
7
  6
CONTINUOUS
 10
207.760818
 20
286.219800
 40
6.000000
  0
CIRCLE
  8
1
 62
7
  6
CONTINUOUS
 10
225.760818
 20
286.219800
 40
6.000000
  0
CIRCLE
  8
1
 62
7
  6
CONTINUOUS
 10
243.760818
 20
286.219800
 40
6.000000
  0
CIRCLE
  8
1
 62
7
  6
CONTINUOUS
 10
261.760818
 20
286.219800
 40
6.000000
  0
LINE
  8
1
 62
7
  6
CONTINUOUS
 10
254.760818
 20
280.219800
 11
268.760818
 21
280.219800
  0
LINE
  8
1
 62
7
  6
CONTINUOUS
 10
268.760818
 20
278.219800
 11
254.760818
 21
278.219800
  0
LINE
  8
1
 62
7
  6
CONTINUOUS
 10
254.760818
 20
276.219800
 11
268.760818
 21
276.219800
  0
LINE
  8
1
 62
7
  6
CONTINUOUS
 10
190.519123
 20
62.219800
 11
212.760818
 21
62.219800
  0
CIRCLE
  8
1
 62
7
  6
CONTINUOUS
 10
259.674757
 20
401.013264
 40
3.007964
  0
TEXT
  8
1
 62
7
  6
CONTINUOUS
 10
247.909171
 20
398.996480
 40
4.000000
 41
1.000000
  1
電源
  7
KANJI
 50
0.000000
 51
0.000000
  0
LINE
  8
1
 62
7
  6
CONTINUOUS
 10
293.958961
 20
270.219800
 11
293.958961
 21
468.219800
  0
LINE
  8
1
 62
7
  6
CONTINUOUS
 10
297.958961
 20
270.219800
 11
276.760818
 21
270.219800
  0
LINE
  8
1
 62
7
  6
CONTINUOUS
 10
297.958961
 20
468.219800
 11
278.760818
 21
468.219800
  0
LINE
  8
1
 62
7
  6
CONTINUOUS
 10
293.958961
 20
270.219800
 11
292.923685
 21
274.083503
  0
LINE
  8
1
 62
7
  6
CONTINUOUS
 10
293.958961
 20
270.219800
 11
294.994237
 21
274.083503
  0
LINE
  8
1
 62
7
  6
CONTINUOUS
 10
293.958961
 20
468.219800
 11
294.994237
 21
464.356097
  0
LINE
  8
1
 62
7
  6
CONTINUOUS
 10
293.958961
 20
468.219800
 11
292.923685
 21
464.356097
  0
TEXT
  8
1
 62
7
  6
CONTINUOUS
 10
293.958961
 20
366.019800
 40
6.000000
 41
0.566667
  1
99
  7
KANJI
 50
90.000000
 51
0.000000
  0
TEXT
  8
15
 62
96
  6
CONTINUOUS
 10
654.568681
 20
56.526660
 40
7.000000
 41
0.500000
  1
G13007-03-07905
  7
KANJI
 50
0.000000
 51
0.000000
  0
TEXT
  8
15
 62
96
  6
CONTINUOUS
 10
786.668762
 20
491.869852
 40
6.001769
 41
0.833333
  1
１点
  7
KANJI
 50
0.000000
 51
0.000000
  0
LINE
  8
15
 62
96
  6
CONTINUOUS
 10
783.938934
 20
500.139093
 11
783.938934
 21
489.135940
  0
TEXT
  8
15
 62
96
  6
CONTINUOUS
 10
728.811045
 20
56.887915
 40
6.001769
 41
0.603448
  1
2007年09月05日
  7
KANJI
 50
0.000000
 51
0.000000
  0
TEXT
  8
15
 62
96
  6
DIVIDE
 10
702.198180
 20
502.639345
 40
6.001769
 41
0.785714
  1
リチウム電池（10年間）
  7
KANJI
 50
0.000000
 51
0.000000
  0
TEXT
  8
15
 62
96
  6
CONTINUOUS
 10
724.704816
 20
447.623125
 40
6.001769
 41
0.564516
  1
AC100Ｖ
  7
KANJI
 50
0.000000
 51
0.000000
  0
TEXT
  8
15
 62
96
  6
CONTINUOUS
 10
729.206143
 20
436.619881
 40
6.001769
 41
0.833333
  1
１Ｗ
  7
KANJI
 50
0.000000
 51
0.000000
  0
TEXT
  8
15
 62
96
  6
CONTINUOUS
 10
422.948013
 20
41.719613
 40
6.000000
 41
0.944444
  1
＊　記載されている会社名、製品名は、登録商標または商標です。
  7
KANJI
 50
0.000000
 51
0.000000
  0
TEXT
  8
15
 62
96
  6
DIVIDE
 10
676.754948
 20
458.626415
 40
6.001769
 41
0.722222
  1
30動作（１日最大ON－OFF　15セット可能）
  7
KANJI
 50
0.000000
 51
0.000000
  0
TEXT
  8
15
 62
96
  6
CONTINUOUS
 10
703.422407
 20
491.636586
 40
6.001769
 41
0.833333
  1
無電圧ｃ接点連続
  7
KANJI
 50
0.000000
 51
0.000000
  0
LINE
  8
15
 62
96
  6
CONTINUOUS
 10
620.173997
 20
434.119144
 11
800.227081
 21
434.119144
  0
TEXT
  8
15
 62
96
  6
CONTINUOUS
 10
684.332759
 20
87.887221
 40
10.002949
 41
0.900000
  1
週間タイマ
  7
KANJI
 50
0.000000
 51
0.000000
  0
LINE
  8
1
 62
7
  6
CONTINUOUS
 10
154.728277
 20
447.209718
 11
154.728277
 21
263.187609
  0
LINE
  8
1
 62
7
  6
CONTINUOUS
 10
150.728277
 20
447.209718
 11
212.676936
 21
447.209718
  0
LINE
  8
1
 62
7
  6
CONTINUOUS
 10
150.728277
 20
263.187609
 11
213.536470
 21
263.187609
  0
LINE
  8
1
 62
7
  6
CONTINUOUS
 10
154.728277
 20
447.209718
 11
155.763554
 21
443.346014
  0
LINE
  8
1
 62
7
  6
CONTINUOUS
 10
154.728277
 20
447.209718
 11
153.693001
 21
443.346014
  0
LINE
  8
1
 62
7
  6
CONTINUOUS
 10
154.728277
 20
263.187609
 11
153.693001
 21
267.051312
  0
LINE
  8
1
 62
7
  6
CONTINUOUS
 10
154.728277
 20
263.187609
 11
155.763554
 21
267.051312
  0
TEXT
  8
1
 62
7
  6
CONTINUOUS
 10
154.728277
 20
351.998663
 40
6.000000
 41
0.566667
  1
92
  7
KANJI
 50
90.000000
 51
0.000000
  0
LINE
  8
1
 62
7
  6
CONTINUOUS
 10
174.760818
 20
488.211565
 11
274.760818
 21
488.211565
  0
LINE
  8
1
 62
7
  6
CONTINUOUS
 10
174.760818
 20
492.211565
 11
174.760818
 21
472.219800
  0
LINE
  8
1
 62
7
  6
CONTINUOUS
 10
274.760818
 20
492.211565
 11
274.760818
 21
472.219800
  0
LINE
  8
1
 62
7
  6
CONTINUOUS
 10
174.760818
 20
488.211565
 11
178.624521
 21
489.246841
  0
LINE
  8
1
 62
7
  6
CONTINUOUS
 10
174.760818
 20
488.211565
 11
178.624521
 21
487.176289
  0
LINE
  8
1
 62
7
  6
CONTINUOUS
 10
274.760818
 20
488.211565
 11
270.897115
 21
487.176289
  0
LINE
  8
1
 62
7
  6
CONTINUOUS
 10
274.760818
 20
488.211565
 11
270.897115
 21
489.246841
  0
TEXT
  8
1
 62
7
  6
CONTINUOUS
 10
221.560818
 20
488.211565
 40
6.000000
 41
0.566667
  1
50
  7
KANJI
 50
0.000000
 51
0.000000
  0
LINE
  8
1
 62
7
  6
CONTINUOUS
 10
497.823603
 20
270.219808
 11
497.823603
 21
337.323445
  0
LINE
  8
1
 62
7
  6
CONTINUOUS
 10
497.823603
 20
468.219808
 11
497.823603
 21
453.219808
  0
LINE
  8
1
 62
7
  6
CONTINUOUS
 10
513.823603
 20
459.219808
 11
507.823603
 21
468.219808
  0
LINE
  8
1
 62
7
  6
CONTINUOUS
 10
513.823603
 20
279.219808
 11
507.823603
 21
270.219808
  0
LINE
  8
1
 62
7
  6
CONTINUOUS
 10
530.823603
 20
279.219808
 11
530.823603
 21
256.219808
  0
LINE
  8
1
 62
7
  6
CONTINUOUS
 10
535.823603
 20
280.219808
 11
535.823603
 21
256.219808
  0
LINE
  8
1
 62
7
  6
CONTINUOUS
 10
525.823603
 20
256.219808
 11
535.823603
 21
256.219808
  0
LINE
  8
1
 62
7
  6
CONTINUOUS
 10
525.823603
 20
279.219808
 11
525.823603
 21
256.219808
  0
LINE
  8
1
 62
7
  6
CONTINUOUS
 10
513.823603
 20
279.219808
 11
523.823603
 21
279.219808
  0
LINE
  8
1
 62
7
  6
CONTINUOUS
 10
518.822216
 20
337.323445
 11
518.822216
 21
453.219808
  0
LINE
  8
1
 62
7
  6
CONTINUOUS
 10
530.533811
 20
459.219808
 11
513.823603
 21
459.219808
  0
LINE
  8
1
 62
7
  6
CONTINUOUS
 10
523.823603
 20
406.601850
 11
523.823603
 21
279.219808
  0
LINE
  8
1
 62
7
  6
CONTINUOUS
 10
535.823603
 20
280.219808
 11
535.823603
 21
322.212364
  0
LINE
  8
1
 62
7
  6
CONTINUOUS
 10
523.823603
 20
459.219808
 11
523.823603
 21
399.219808
  0
LINE
  8
1
 62
7
  6
CONTINUOUS
 10
529.823603
 20
459.219808
 11
523.823603
 21
459.219808
  0
ARC
  8
1
 62
7
  6
CONTINUOUS
 10
529.823603
 20
453.219808
 40
6.000000
 50
0.000000
 51
90.000000
  0
LINE
  8
1
 62
7
  6
CONTINUOUS
 10
525.211573
 20
399.219808
 11
532.682560
 21
399.219808
  0
LINE
  8
1
 62
7
  6
CONTINUOUS
 10
535.823603
 20
407.992860
 11
535.823603
 21
453.219808
  0
ARC
  8
1
 62
7
  6
CONTINUOUS
 10
534.823603
 20
280.219808
 40
1.000000
 50
-90.000000
 51
0.000000
  0
LINE
  8
1
 62
7
  6
CONTINUOUS
 10
523.823603
 20
279.219808
 11
534.823603
 21
279.219808
  0
LINE
  8
1
 62
7
  6
CONTINUOUS
 10
526.849169
 20
329.219808
 11
523.823603
 21
322.212364
  0
LINE
  8
1
 62
7
  6
CONTINUOUS
 10
535.823603
 20
322.212364
 11
526.849169
 21
329.219808
  0
LINE
  8
1
 62
7
  6
CONTINUOUS
 10
535.823603
 20
322.212364
 11
523.823603
 21
322.212364
  0
LINE
  8
1
 62
7
  6
CONTINUOUS
 10
525.162814
 20
399.219808
 11
523.823603
 21
406.601850
  0
LINE
  8
1
 62
7
  6
CONTINUOUS
 10
532.682560
 20
399.219808
 11
525.162814
 21
399.219808
  0
LINE
  8
1
 62
7
  6
CONTINUOUS
 10
535.823603
 20
408.733243
 11
532.682560
 21
399.219808
  0
LINE
  8
1
 62
7
  6
CONTINUOUS
 10
523.823603
 20
408.733243
 11
535.823603
 21
408.733243
  0
LINE
  8
1
 62
7
  6
CONTINUOUS
 10
507.823603
 20
270.219808
 11
451.823603
 21
270.219808
  0
LINE
  8
1
 62
7
  6
CONTINUOUS
 10
468.395159
 20
337.323445
 11
518.822216
 21
337.323445
  0
LINE
  8
1
 62
7
  6
CONTINUOUS
 10
518.822216
 20
453.219808
 11
438.023148
 21
453.219808
  0
LINE
  8
1
 62
7
  6
CONTINUOUS
 10
453.823603
 20
293.219808
 11
523.823603
 21
293.219808
  0
LINE
  8
1
 62
7
  6
CONTINUOUS
 10
427.823603
 20
468.219808
 11
507.823603
 21
468.219808
  0
LINE
  8
1
 62
7
  6
CONTINUOUS
 10
415.823603
 20
436.219808
 11
427.823603
 21
468.219808
  0
LINE
  8
1
 62
7
  6
CONTINUOUS
 10
435.823603
 20
412.198246
 11
435.823603
 21
312.219808
  0
LINE
  8
1
 62
7
  6
CONTINUOUS
 10
435.823603
 20
312.219808
 11
415.823603
 21
312.219808
  0
LINE
  8
1
 62
7
  6
CONTINUOUS
 10
435.823603
 20
382.198246
 11
423.823603
 21
382.198246
  0
LINE
  8
1
 62
7
  6
CONTINUOUS
 10
423.823603
 20
342.198246
 11
435.823603
 21
342.198246
  0
ARC
  8
1
 62
7
  6
CONTINUOUS
 10
461.823603
 20
378.198246
 40
4.000000
 50
0.000000
 51
90.000000
  0
LINE
  8
1
 62
7
  6
CONTINUOUS
 10
465.823603
 20
378.198246
 11
465.823603
 21
346.198246
  0
ARC
  8
1
 62
7
  6
CONTINUOUS
 10
461.823603
 20
346.198246
 40
4.000000
 50
-90.000000
 51
0.000000
  0
LINE
  8
1
 62
7
  6
CONTINUOUS
 10
435.823603
 20
342.198246
 11
435.823603
 21
344.198246
  0
LINE
  8
1
 62
7
  6
CONTINUOUS
 10
435.823603
 20
344.198246
 11
437.506279
 21
344.198246
  0
LINE
  8
1
 62
7
  6
CONTINUOUS
 10
437.823603
 20
344.198246
 11
437.823603
 21
342.198246
  0
LINE
  8
1
 62
7
  6
CONTINUOUS
 10
435.823603
 20
382.198246
 11
435.823603
 21
380.198246
  0
LINE
  8
1
 62
7
  6
CONTINUOUS
 10
435.823603
 20
380.198246
 11
437.823603
 21
380.198246
  0
LINE
  8
1
 62
7
  6
CONTINUOUS
 10
437.823603
 20
380.198246
 11
437.823603
 21
382.198246
  0
LINE
  8
1
 62
7
  6
CONTINUOUS
 10
437.823603
 20
382.198246
 11
461.823603
 21
382.198246
  0
LINE
  8
1
 62
7
  6
CONTINUOUS
 10
461.823603
 20
342.198246
 11
437.823603
 21
342.198246
  0
LINE
  8
1
 62
7
  6
CONTINUOUS
 10
419.823603
 20
293.219808
 11
447.823603
 21
293.219808
  0
TEXT
  8
1
 62
7
  6
CONTINUOUS
 10
445.311599
 20
379.324764
 40
8.000000
 41
0.916667
  1
ＰＵＳＨ
  7
KANJI
 50
-90.000000
 51
0.000000
  0
LINE
  8
1
 62
7
  6
CONTINUOUS
 10
443.050958
 20
379.786993
 11
443.050958
 21
343.992608
  0
LINE
  8
1
 62
7
  6
CONTINUOUS
 10
443.050958
 20
343.992608
 11
456.848794
 21
343.992608
  0
LINE
  8
1
 62
7
  6
CONTINUOUS
 10
456.848794
 20
343.992608
 11
456.848794
 21
379.786993
  0
LINE
  8
1
 62
7
  6
CONTINUOUS
 10
456.848794
 20
379.786993
 11
443.050958
 21
379.786993
  0
LINE
  8
1
 62
7
  6
CONTINUOUS
 10
450.603784
 20
312.219808
 11
453.823603
 21
293.219808
  0
LINE
  8
1
 62
7
  6
CONTINUOUS
 10
438.023148
 20
453.219808
 11
438.023148
 21
384.868415
  0
LINE
  8
1
 62
7
  6
CONTINUOUS
 10
438.023148
 20
384.868415
 11
468.395159
 21
384.868415
  0
LINE
  8
1
 62
7
  6
CONTINUOUS
 10
468.395159
 20
384.868415
 11
468.395159
 21
337.323445
  0
LINE
  8
1
 62
7
  6
CONTINUOUS
 10
436.603896
 20
312.219808
 11
450.603784
 21
312.219808
  0
LINE
  8
1
 62
7
  6
CONTINUOUS
 10
447.823603
 20
274.219808
 11
447.823603
 21
293.219808
  0
ARC
  8
1
 62
7
  6
CONTINUOUS
 10
451.823603
 20
274.219808
 40
4.000000
 50
180.000000
 51
-90.000000
  0
LINE
  8
1
 62
7
  6
CONTINUOUS
 10
415.823603
 20
412.198246
 11
435.823603
 21
412.198246
  0
LINE
  8
1
 62
7
  6
CONTINUOUS
 10
447.823603
 20
293.219808
 11
447.823603
 21
274.219808
  0
ARC
  8
1
 62
7
  6
CONTINUOUS
 10
382.823326
 20
409.487757
 40
1.000000
 50
92.045408
 51
-180.000000
  0
LINE
  8
1
 62
7
  6
CONTINUOUS
 10
381.824388
 20
316.171630
 11
381.823603
 21
409.612554
  0
ARC
  8
1
 62
7
  6
CONTINUOUS
 10
382.824134
 20
316.194134
 40
1.000000
 50
180.000000
 51
-94.085617
  0
LINE
  8
1
 62
7
  6
CONTINUOUS
 10
405.823603
 20
411.841104
 11
382.717408
 21
410.483083
  0
LINE
  8
1
 62
7
  6
CONTINUOUS
 10
405.823603
 20
312.968455
 11
382.610871
 21
315.210137
  0
LINE
  8
1
 62
7
  6
CONTINUOUS
 10
383.861349
 20
318.311451
 11
405.823603
 21
316.219808
  0
LINE
  8
1
 62
7
  6
CONTINUOUS
 10
383.817566
 20
318.294059
 11
383.817566
 21
407.347684
  0
LINE
  8
1
 62
7
  6
CONTINUOUS
 10
383.795389
 20
407.336741
 11
405.823603
 21
408.613790
  0
ARC
  8
1
 62
7
  6
CONTINUOUS
 10
419.823603
 20
297.219808
 40
4.000000
 50
180.000000
 51
-90.000000
  0
LINE
  8
1
 62
7
  6
CONTINUOUS
 10
415.823603
 20
312.219808
 11
415.823603
 21
297.219808
  0
ARC
  8
1
 62
7
  6
CONTINUOUS
 10
423.823603
 20
346.198246
 40
4.000000
 50
180.000000
 51
-90.000000
  0
LINE
  8
1
 62
7
  6
CONTINUOUS
 10
419.823603
 20
378.198246
 11
419.823603
 21
346.198246
  0
ARC
  8
1
 62
7
  6
CONTINUOUS
 10
423.823603
 20
378.198246
 40
4.000000
 50
90.000000
 51
180.000000
  0
ARC
  8
1
 62
7
  6
CONTINUOUS
 10
418.823603
 20
415.198246
 40
3.000000
 50
180.000000
 51
-90.000000
  0
LINE
  8
1
 62
7
  6
CONTINUOUS
 10
415.823603
 20
436.219808
 11
415.823603
 21
415.198246
  0
LINE
  8
1
 62
7
  6
CONTINUOUS
 10
402.209249
 20
370.291210
 11
401.823603
 21
369.834850
  0
LINE
  8
1
 62
7
  6
CONTINUOUS
 10
402.209249
 20
370.291210
 11
401.823603
 21
370.724250
  0
LINE
  8
1
 62
7
  6
CONTINUOUS
 10
401.823603
 20
369.834850
 11
401.823603
 21
366.763404
  0
LINE
  8
1
 62
7
  6
CONTINUOUS
 10
401.823603
 20
366.763404
 11
405.823603
 21
366.763404
  0
LINE
  8
1
 62
7
  6
CONTINUOUS
 10
405.823603
 20
366.763404
 11
405.823603
 21
369.834850
  0
LINE
  8
1
 62
7
  6
CONTINUOUS
 10
405.823603
 20
369.834850
 11
401.823603
 21
369.834850
  0
LINE
  8
1
 62
7
  6
CONTINUOUS
 10
401.823603
 20
373.775997
 11
401.823603
 21
370.724250
  0
LINE
  8
1
 62
7
  6
CONTINUOUS
 10
401.823603
 20
370.724250
 11
405.823603
 21
370.724250
  0
LINE
  8
1
 62
7
  6
CONTINUOUS
 10
405.823603
 20
370.724250
 11
405.823603
 21
373.775997
  0
LINE
  8
1
 62
7
  6
CONTINUOUS
 10
405.823603
 20
373.775997
 11
401.823603
 21
373.775997
  0
LINE
  8
1
 62
7
  6
CONTINUOUS
 10
405.823603
 20
350.219808
 11
405.823603
 21
344.219808
  0
LINE
  8
1
 62
7
  6
CONTINUOUS
 10
405.823603
 20
344.219808
 11
401.823603
 21
344.219808
  0
LINE
  8
1
 62
7
  6
CONTINUOUS
 10
401.823603
 20
344.219808
 11
401.823603
 21
350.219808
  0
LINE
  8
1
 62
7
  6
CONTINUOUS
 10
401.823603
 20
350.219808
 11
405.823603
 21
350.219808
  0
LINE
  8
1
 62
7
  6
CONTINUOUS
 10
405.823603
 20
332.331995
 11
405.823603
 21
337.819808
  0
LINE
  8
1
 62
7
  6
CONTINUOUS
 10
405.823603
 20
337.819808
 11
401.823603
 21
337.819808
  0
LINE
  8
1
 62
7
  6
CONTINUOUS
 10
401.823603
 20
337.819808
 11
401.823603
 21
332.331995
  0
LINE
  8
1
 62
7
  6
CONTINUOUS
 10
401.823603
 20
332.331995
 11
405.823603
 21
332.331995
  0
LINE
  8
1
 62
7
  6
CONTINUOUS
 10
405.823603
 20
326.219808
 11
405.823603
 21
320.219808
  0
LINE
  8
1
 62
7
  6
CONTINUOUS
 10
405.823603
 20
320.219808
 11
401.823603
 21
320.219808
  0
LINE
  8
1
 62
7
  6
CONTINUOUS
 10
401.823603
 20
320.219808
 11
401.823603
 21
326.219808
  0
LINE
  8
1
 62
7
  6
CONTINUOUS
 10
401.823603
 20
326.219808
 11
405.823603
 21
326.219808
  0
LINE
  8
1
 62
7
  6
CONTINUOUS
 10
405.823603
 20
411.841104
 11
415.823603
 21
411.841104
  0
LINE
  8
1
 62
7
  6
CONTINUOUS
 10
405.823603
 20
312.934093
 11
405.823603
 21
411.841104
  0
LINE
  8
1
 62
7
  6
CONTINUOUS
 10
415.823603
 20
312.934093
 11
405.318225
 21
312.970192
  0
LINE
  8
1
 62
7
  6
CONTINUOUS
 10
415.823603
 20
412.198246
 11
415.823603
 21
312.219808
  0
LINE
  8
1
 62
7
  6
CONTINUOUS
 10
361.829968
 20
412.198246
 11
361.829968
 21
312.219808
  0
LINE
  8
1
 62
7
  6
CONTINUOUS
 10
357.829968
 20
412.198246
 11
411.823603
 21
412.198246
  0
LINE
  8
1
 62
7
  6
CONTINUOUS
 10
357.829968
 20
312.219808
 11
411.823603
 21
312.219808
  0
LINE
  8
1
 62
7
  6
CONTINUOUS
 10
361.829968
 20
412.198246
 11
362.865244
 21
408.334543
  0
LINE
  8
1
 62
7
  6
CONTINUOUS
 10
361.829968
 20
412.198246
 11
360.794691
 21
408.334543
  0
LINE
  8
1
 62
7
  6
CONTINUOUS
 10
361.829968
 20
312.219808
 11
360.794691
 21
316.083511
  0
LINE
  8
1
 62
7
  6
CONTINUOUS
 10
361.829968
 20
312.219808
 11
362.865244
 21
316.083511
  0
TEXT
  8
1
 62
7
  6
CONTINUOUS
 10
361.829968
 20
359.009027
 40
6.000000
 41
0.566667
  1
50
  7
KANJI
 50
90.000000
 51
0.000000
  0
LINE
  8
1
 62
7
  6
CONTINUOUS
 10
361.829968
 20
468.219808
 11
361.829968
 21
412.198246
  0
LINE
  8
1
 62
7
  6
CONTINUOUS
 10
357.829968
 20
468.219808
 11
423.823603
 21
468.219808
  0
LINE
  8
1
 62
7
  6
CONTINUOUS
 10
357.829968
 20
412.198246
 11
423.832203
 21
412.198246
  0
LINE
  8
1
 62
7
  6
CONTINUOUS
 10
361.829968
 20
468.219808
 11
362.865244
 21
464.356104
  0
LINE
  8
1
 62
7
  6
CONTINUOUS
 10
361.829968
 20
468.219808
 11
360.794691
 21
464.356104
  0
LINE
  8
1
 62
7
  6
CONTINUOUS
 10
361.829968
 20
412.198246
 11
360.794691
 21
416.061950
  0
LINE
  8
1
 62
7
  6
CONTINUOUS
 10
361.829968
 20
412.198246
 11
362.865244
 21
416.061950
  0
TEXT
  8
1
 62
7
  6
CONTINUOUS
 10
361.829968
 20
436.960408
 40
6.000000
 41
0.566667
  1
28
  7
KANJI
 50
90.000000
 51
0.000000
  0
LINE
  8
1
 62
7
  6
CONTINUOUS
 10
415.823603
 20
488.211572
 11
535.823603
 21
488.211572
  0
LINE
  8
1
 62
7
  6
CONTINUOUS
 10
415.823603
 20
492.211572
 11
415.823603
 21
440.219808
  0
LINE
  8
1
 62
7
  6
CONTINUOUS
 10
535.823603
 20
492.211572
 11
535.823603
 21
457.219808
  0
LINE
  8
1
 62
7
  6
CONTINUOUS
 10
415.823603
 20
488.211572
 11
419.687306
 21
489.246848
  0
LINE
  8
1
 62
7
  6
CONTINUOUS
 10
415.823603
 20
488.211572
 11
419.687306
 21
487.176296
  0
LINE
  8
1
 62
7
  6
CONTINUOUS
 10
535.823603
 20
488.211572
 11
531.959900
 21
487.176296
  0
LINE
  8
1
 62
7
  6
CONTINUOUS
 10
535.823603
 20
488.211572
 11
531.959900
 21
489.246848
  0
TEXT
  8
1
 62
7
  6
CONTINUOUS
 10
472.623603
 20
488.211572
 40
6.000000
 41
0.566667
  1
60
  7
KANJI
 50
0.000000
 51
0.000000
  0
LINE
  8
1
 62
7
  6
CONTINUOUS
 10
415.823603
 20
488.211565
 11
381.823644
 21
488.211565
  0
LINE
  8
1
 62
7
  6
CONTINUOUS
 10
415.823603
 20
492.211565
 11
415.823603
 21
440.219808
  0
LINE
  8
1
 62
7
  6
CONTINUOUS
 10
381.823644
 20
492.211565
 11
381.823644
 21
416.198246
  0
LINE
  8
1
 62
7
  6
CONTINUOUS
 10
415.823603
 20
488.211565
 11
411.959900
 21
487.176289
  0
LINE
  8
1
 62
7
  6
CONTINUOUS
 10
415.823603
 20
488.211565
 11
411.959900
 21
489.246841
  0
LINE
  8
1
 62
7
  6
CONTINUOUS
 10
381.823644
 20
488.211565
 11
385.687347
 21
489.246841
  0
LINE
  8
1
 62
7
  6
CONTINUOUS
 10
381.823644
 20
488.211565
 11
385.687347
 21
487.176289
  0
TEXT
  8
1
 62
7
  6
CONTINUOUS
 10
395.623624
 20
488.211565
 40
6.000000
 41
0.566667
  1
17
  7
KANJI
 50
0.000000
 51
0.000000
  0
LINE
  8
1
 62
7
  6
CONTINUOUS
 10
134.725729
 20
256.219800
 11
134.725729
 21
468.219800
  0
LINE
  8
1
 62
7
  6
CONTINUOUS
 10
130.725729
 20
256.219800
 11
213.524132
 21
256.219800
  0
LINE
  8
1
 62
7
  6
CONTINUOUS
 10
130.725729
 20
468.219800
 11
170.760818
 21
468.219800
  0
LINE
  8
1
 62
7
  6
CONTINUOUS
 10
134.725729
 20
256.219800
 11
133.690453
 21
260.083503
  0
LINE
  8
1
 62
7
  6
CONTINUOUS
 10
134.725729
 20
256.219800
 11
135.761005
 21
260.083503
  0
LINE
  8
1
 62
7
  6
CONTINUOUS
 10
134.725729
 20
468.219800
 11
135.761005
 21
464.356097
  0
LINE
  8
1
 62
7
  6
CONTINUOUS
 10
134.725729
 20
468.219800
 11
133.690453
 21
464.356097
  0
TEXT
  8
1
 62
7
  6
CONTINUOUS
 10
134.725729
 20
357.319800
 40
6.000000
 41
0.566667
  1
106
  7
KANJI
 50
90.000000
 51
0.000000
  0
LINE
  8
1
 62
7
  6
CONTINUOUS
 10
154.728277
 20
492.219800
 11
154.728277
 21
431.209718
  0
LINE
  8
1
 62
7
  6
CONTINUOUS
 10
150.728277
 20
468.219800
 11
170.760818
 21
468.219800
  0
LINE
  8
1
 62
7
  6
CONTINUOUS
 10
150.728277
 20
447.209718
 11
212.676936
 21
447.209718
  0
LINE
  8
1
 62
7
  6
CONTINUOUS
 10
154.728277
 20
468.219800
 11
153.693001
 21
472.083503
  0
LINE
  8
1
 62
7
  6
CONTINUOUS
 10
154.728277
 20
468.219800
 11
155.763554
 21
472.083503
  0
LINE
  8
1
 62
7
  6
CONTINUOUS
 10
154.728277
 20
447.209718
 11
155.763554
 21
443.346014
  0
LINE
  8
1
 62
7
  6
CONTINUOUS
 10
154.728277
 20
447.209718
 11
153.693001
 21
443.346014
  0
TEXT
  8
1
 62
7
  6
CONTINUOUS
 10
154.728277
 20
475.373200
 40
6.000000
 41
0.629630
  1
10.5
  7
KANJI
 50
90.000000
 51
0.000000
  0
LINE
  8
1
 62
7
  6
DASHDOT
 10
217.536470
 20
263.187609
 11
232.690740
 21
263.187609
  0
LINE
  8
1
 62
7
  6
DASHDOT
 10
225.620341
 20
269.317544
 11
225.620341
 21
257.367701
  0
LINE
  8
1
 62
7
  6
DASHDOT
 10
216.676936
 20
447.209718
 11
231.831205
 21
447.209718
  0
LINE
  8
1
 62
7
  6
DASHDOT
 10
224.760806
 20
453.339652
 11
224.760806
 21
441.389810
  0
ENDSEC
  0
EOF
