  0
SECTION
  2
HEADER
  9
$ACADVER
  1
AC1003
  9
$INSBASE
 10
0.000000
 20
0.000000
  9
$EXTMIN
 10
0.000000
 20
0.000000
  9
$EXTMAX
 10
840.000000
 20
594.000000
  9
$LIMMIN
 10
0.000000
 20
0.000000
  9
$LIMMAX
 10
840.000000
 20
594.000000
  9
$VIEWCTR
 10
420.000000
 20
297.000000
  9
$VIEWSIZE
 40
594.000000
  9
$PEXTMIN
 10
0.000000
 20
0.000000
 30
0.000000
  9
$PEXTMAX
 10
420.000000
 20
297.000000
 30
0.000000
  9
$SNAPMODE
 70
     0
  9
$SNAPUNIT
 10
1.000000
 20
1.000000
  9
$SNAPBASE
 10
0.000000
 20
0.000000
  9
$SNAPANG
 50
0.000000
  9
$SNAPISOPAIR
 70
     0
  9
$SNAPSTYLE
 70
     0
  9
$GRIDMODE
 70
     0
  9
$GRIDUNIT
 10
0.000000
 20
0.000000
  9
$ORTHOMODE
 70
     0
  9
$REGENMODE
 70
     1
  9
$FILLMODE
 70
     1
  9
$QTEXTMODE
 70
     0
  9
$DRAGMODE
 70
     2
  9
$LTSCALE
 40
0.500000
  9
$OSMODE
 70
     0
  9
$ATTMODE
 70
     1
  9
$TEXTSIZE
 40
0.200000
  9
$TRACEWID
 40
0.050000
  9
$TEXTSTYLE
  7
STANDARD
  9
$CLAYER
  8
0
  9
$CELTYPE
  6
BYLAYER
  9
$CECOLOR
 62
   256
  9
$DIMSCALE
 40
1.000000
  9
$DIMASZ
 40
1.000000
  9
$DIMEXO
 40
0.000000
  9
$DIMDLI
 40
0.500000
  9
$DIMRND
 40
0.000000
  9
$DIMDLE
 40
0.000000
  9
$DIMEXE
 40
0.000000
  9
$DIMTP
 40
0.000000
  9
$DIMTM
 40
0.000000
  9
$DIMTXT
 40
0.180000
  9
$DIMCEN
 40
0.000000
  9
$DIMTSZ
 40
0.000000
  9
$DIMTOL
 70
     0
  9
$DIMLIM
 70
     0
  9
$DIMTIH
 70
     1
  9
$DIMTOH
 70
     1
  9
$DIMSE1
 70
     0
  9
$DIMSE2
 70
     0
  9
$DIMTAD
 70
     0
  9
$DIMZIN
 70
     0
  9
$DIMBLK
  1

  9
$DIMASO
 70
     0
  9
$DIMSHO
 70
     0
  9
$DIMPOST
  1

  9
$DIMAPOST
  1

  9
$DIMALT
 70
     0
  9
$DIMALTD
 70
     0
  9
$DIMALTF
 40
25.400000
  9
$DIMLFAC
 40
1.000000
  9
$DIMTOFL
 70
     0
  9
$DIMTVP
 40
0.000000
  9
$DIMTIX
 70
     0
  9
$DIMSOXD
 70
     0
  9
$DIMSAH
 70
     0
  9
$DIMBLKL
  1

  9
$DIMBLKR
  1

  9
$LUNITS
 70
     2
  9
$LUPREC
 70
     2
  9
$AXISMODE
 70
     0
  9
$AXISUNIT
 10
1.000000
 20
1.000000
  9
$SKETCHINC
 40
0.000000
  9
$FILLETRAD
 40
0.000000
  9
$AUNITS
 70
     1
  9
$AUPREC
 70
     2
  9
$MENU
  1
ACAD
  9
$ELEVATION
 40
0.000000
  9
$THICKNESS
 40
0.000000
  9
$VIEWDIR
 10
0.000000
 20
0.000000
 30
1.000000
  9
$LIMCHECK
 70
     1
  9
$BLIPMODE
 70
     1
  9
$CHAMFERA
 40
0.000000
  9
$CHAMFERB
 40
0.000000
  9
$FASTZOOM
 70
     1
  9
$SKPOLY
 70
     0
  9
$TDCREATE
 40
0.000000
  9
$TDUPDATE
 40
0.000000
  9
$TDINDWG
 40
0.000000
  9
$TDUSRTIMER
 40
0.000000
  9
$USRTIMER
 70
     1
  9
$ANGBASE
 50
0.000000
  9
$ANGDIR
 70
     0
  9
$PDMODE
 70
     0
  9
$PDSIZE
 40
0.000000
  9
$PLINEWID
 40
0.000000
  9
$COORDS
 70
     2
  9
$USERI1
 70
     0
  9
$USERI2
 70
     0
  9
$USERI3
 70
     0
  9
$USERI4
 70
     0
  9
$USERI5
 70
     0
  9
$USERR1
 40
0.000000
  9
$USERR2
 40
0.000000
  9
$USERR3
 40
0.000000
  9
$USERR4
 40
0.000000
  9
$USERR5
 40
0.000000
  0
ENDSEC
  0
SECTION
  2
TABLES
  0
TABLE
  2
LTYPE
 70
     5
  0
LTYPE
  2
CONTINUOUS
 70
    64
  3
Solid line
 72
    65
 73
     0
 40
0.0
  0
LTYPE
  2
HIDDEN
 70
    64
  3
------------------------
 72
    65
 73
     2
 40
12.6
 49
8.4
 49
-4.2
  0
LTYPE
  2
DOT
 70
    64
  3
････････････････････････
 72
    65
 73
     2
 40
8.0
 49
6.0
 49
-2.0
  0
LTYPE
  2
DASHDOT
 70
    64
  3
--･--･--･--･--･--･--･--
 72
    65
 73
     4
 40
50.5
 49
30.0
 49
-9.0
 49
2.5
 49
-9.0
  0
LTYPE
  2
DIVIDE
 70
    64
  3
--･･--･･--･･--･･--･･--
 72
    65
 73
     6
 40
58.0
 49
30.0
 49
-9.0
 49
2.5
 49
-5.0
 49
2.5
 49
-9.0
  0
ENDTAB
  0
TABLE
  2
LAYER
 70
3
  0
LAYER
  2
1
 70
64
 62
7
  6
CONTINUOUS
  0
LAYER
  2
3
 70
64
 62
216
  6
CONTINUOUS
  0
LAYER
  2
15
 70
64
 62
96
  6
CONTINUOUS
  0
ENDTAB
  0
TABLE
  2
STYLE
 70
     2
  0
STYLE
  2
STANDARD
 70
    64
 40
0.0
 41
1.0
 50
0.0
 71
     0
 42
0.2
  3
TXT
  4

  0
STYLE
  2
KANJI
 70
    64
 40
0.0
 41
1.0
 50
0.0
 71
     0
 42
0.2
  3
TXT
  4
BIGFONT
  0
ENDTAB
  0
TABLE
  2
VIEW
 70
     0
  0
ENDTAB
  0
ENDSEC
  0
SECTION
  2
BLOCKS
  0
ENDSEC
  0
SECTION
  2
ENTITIES
  0
LINE
  8
15
 62
96
  6
CONTINUOUS
 10
30.000000
 20
544.151584
 11
30.000000
 21
30.000000
  0
LINE
  8
15
 62
96
  6
CONTINUOUS
 10
30.000000
 20
30.000000
 11
800.227081
 21
30.000000
  0
LINE
  8
15
 62
96
  6
CONTINUOUS
 10
728.879008
 20
41.403554
 11
703.946332
 21
41.403554
  0
TEXT
  8
15
 62
96
  6
CONTINUOUS
 10
668.409370
 20
39.382282
 40
3.601062
 41
1.018519
  1
出入管理システム
  7
KANJI
 50
0.000000
 51
0.000000
  0
TEXT
  8
15
 62
96
  6
CONTINUOUS
 10
668.550527
 20
31.618634
 40
7.202123
 41
1.782407
  1
株式会社
  7
KANJI
 50
0.000000
 51
0.000000
  0
LINE
  8
15
 62
96
  6
CONTINUOUS
 10
628.756797
 20
31.757640
 11
635.092369
 21
31.757640
  0
LINE
  8
15
 62
96
  6
CONTINUOUS
 10
666.038375
 20
39.457096
 11
666.038375
 21
41.888499
  0
LINE
  8
15
 62
96
  6
CONTINUOUS
 10
663.404362
 20
39.457096
 11
666.038375
 21
39.457096
  0
LINE
  8
15
 62
96
  6
CONTINUOUS
 10
663.404362
 20
31.757640
 11
663.404362
 21
39.457096
  0
LINE
  8
15
 62
96
  6
CONTINUOUS
 10
660.567717
 20
31.757640
 11
663.404362
 21
31.757640
  0
LINE
  8
15
 62
96
  6
CONTINUOUS
 10
658.863116
 20
31.757640
 11
655.299669
 21
31.757640
  0
LINE
  8
15
 62
96
  6
CONTINUOUS
 10
640.508608
 20
31.757640
 11
649.221143
 21
31.757640
  0
LINE
  8
15
 62
96
  6
CONTINUOUS
 10
640.508608
 20
36.012600
 11
640.508608
 21
31.757640
  0
LINE
  8
15
 62
96
  6
CONTINUOUS
 10
635.092369
 20
31.757640
 11
644.966187
 21
41.533696
  0
LINE
  8
15
 62
96
  6
CONTINUOUS
 10
644.966187
 20
41.533696
 11
644.966187
 21
36.012600
  0
LINE
  8
15
 62
96
  6
CONTINUOUS
 10
644.966187
 20
36.012600
 11
640.508608
 21
36.012600
  0
LINE
  8
15
 62
96
  6
CONTINUOUS
 10
649.221143
 20
37.430920
 11
655.299669
 21
31.757640
  0
ARC
  8
15
 62
96
  6
CONTINUOUS
 10
654.083963
 20
38.444008
 40
1.013088
 50
-90.000000
 51
90.000000
  0
LINE
  8
15
 62
96
  6
CONTINUOUS
 10
649.221143
 20
37.430920
 11
654.083963
 21
37.430920
  0
LINE
  8
15
 62
96
  6
CONTINUOUS
 10
650.031617
 20
39.457096
 11
654.083963
 21
39.457096
  0
LINE
  8
15
 62
96
  6
CONTINUOUS
 10
650.031617
 20
41.888499
 11
650.031617
 21
39.457096
  0
LINE
  8
15
 62
96
  6
CONTINUOUS
 10
650.031617
 20
41.888499
 11
654.851778
 21
41.888499
  0
ARC
  8
15
 62
96
  6
CONTINUOUS
 10
654.467866
 20
38.444008
 40
3.465820
 50
-76.055153
 51
83.640296
  0
LINE
  8
15
 62
96
  6
CONTINUOUS
 10
655.299669
 20
35.083527
 11
658.863116
 21
31.757640
  0
LINE
  8
15
 62
96
  6
CONTINUOUS
 10
666.038375
 20
41.888499
 11
657.933686
 21
41.888499
  0
LINE
  8
15
 62
96
  6
CONTINUOUS
 10
657.933686
 20
41.888499
 11
657.933686
 21
39.457096
  0
LINE
  8
15
 62
96
  6
CONTINUOUS
 10
657.933686
 20
39.457096
 11
660.567717
 21
39.457096
  0
LINE
  8
15
 62
96
  6
CONTINUOUS
 10
660.567717
 20
39.457096
 11
660.567717
 21
31.757640
  0
TEXT
  8
15
 62
96
  6
CONTINUOUS
 10
621.036305
 20
95.928688
 40
5.001474
 41
0.900000
  1
製品名
  7
KANJI
 50
0.000000
 51
0.000000
  0
LINE
  8
15
 62
96
  6
CONTINUOUS
 10
620.173997
 20
30.000000
 11
620.173997
 21
120.026556
  0
LINE
  8
15
 62
96
  6
CONTINUOUS
 10
620.173997
 20
102.021247
 11
800.227081
 21
102.021247
  0
LINE
  8
15
 62
96
  6
CONTINUOUS
 10
620.173997
 20
102.021234
 11
800.227081
 21
102.021247
  0
LINE
  8
15
 62
96
  6
CONTINUOUS
 10
800.227081
 20
54.007092
 11
620.173997
 21
54.007078
  0
TEXT
  8
15
 62
96
  6
CONTINUOUS
 10
621.665981
 20
78.177051
 40
5.001474
 41
0.900000
  1
縮尺（Ａ３）
  7
KANJI
 50
0.000000
 51
0.000000
  0
LINE
  8
15
 62
96
  6
CONTINUOUS
 10
650.182845
 20
66.010619
 11
650.182845
 21
54.007080
  0
LINE
  8
15
 62
96
  6
CONTINUOUS
 10
649.221143
 20
31.757640
 11
649.221143
 21
52.019363
  0
LINE
  8
15
 62
96
  6
CONTINUOUS
 10
649.221143
 20
52.019363
 11
628.756797
 21
31.757640
  0
LINE
  8
15
 62
96
  6
CONTINUOUS
 10
648.687832
 20
51.491333
 11
649.221143
 21
51.491333
  0
TEXT
  8
15
 62
96
  6
CONTINUOUS
 10
733.224966
 20
30.773985
 40
20.005898
 41
0.833333
  1
アート
  7
KANJI
 50
0.000000
 51
0.000000
  0
TEXT
  8
15
 62
96
  6
CONTINUOUS
 10
624.450470
 20
57.026766
 40
5.001474
 41
0.900000
  1
図面番号
  7
KANJI
 50
0.000000
 51
0.000000
  0
TEXT
  8
15
 62
96
  6
CONTINUOUS
 10
752.320241
 20
77.711739
 40
5.001474
 41
0.900000
  1
作図
  7
KANJI
 50
0.000000
 51
0.000000
  0
LINE
  8
15
 62
96
  6
CONTINUOUS
 10
650.182845
 20
84.015925
 11
650.182845
 21
66.010619
  0
LINE
  8
15
 62
96
  6
CONTINUOUS
 10
700.197590
 20
84.015925
 11
700.197590
 21
66.010623
  0
LINE
  8
15
 62
96
  6
CONTINUOUS
 10
750.212336
 20
84.015925
 11
750.212336
 21
66.010627
  0
LINE
  8
15
 62
96
  6
CONTINUOUS
 10
620.173997
 20
533.148340
 11
800.227081
 21
533.148340
  0
LINE
  8
15
 62
96
  6
CONTINUOUS
 10
620.173997
 20
522.145096
 11
800.227081
 21
522.145096
  0
LINE
  8
15
 62
96
  6
CONTINUOUS
 10
620.173997
 20
511.141852
 11
800.227081
 21
511.141852
  0
LINE
  8
15
 62
96
  6
CONTINUOUS
 10
800.227081
 20
500.138608
 11
620.173997
 21
500.138608
  0
LINE
  8
15
 62
96
  6
CONTINUOUS
 10
620.173997
 20
489.135364
 11
800.227081
 21
489.135364
  0
LINE
  8
15
 62
96
  6
CONTINUOUS
 10
620.173997
 20
478.132120
 11
800.227081
 21
478.132120
  0
LINE
  8
15
 62
96
  6
CONTINUOUS
 10
620.173997
 20
544.151584
 11
620.173997
 21
145.033928
  0
LINE
  8
15
 62
96
  6
CONTINUOUS
 10
620.173997
 20
120.026556
 11
620.173997
 21
145.033928
  0
TEXT
  8
15
 62
96
  6
DIVIDE
 10
630.176946
 20
535.649077
 40
6.001769
 41
0.833333
  1
商品コード
  7
KANJI
 50
0.000000
 51
0.000000
  0
TEXT
  8
15
 62
96
  6
DIVIDE
 10
689.194346
 20
524.645833
 40
6.001769
 41
0.833333
  1
定　　　　　格
  7
KANJI
 50
0.000000
 51
0.000000
  0
LINE
  8
15
 62
96
  6
CONTINUOUS
 10
800.220119
 20
290.869593
 11
800.220119
 21
295.133722
  0
LINE
  8
15
 62
96
  6
CONTINUOUS
 10
30.000000
 20
544.151584
 11
800.227600
 21
544.151584
  0
TEXT
  8
15
 62
96
  6
CONTINUOUS
 10
621.035263
 20
113.255697
 40
5.001474
 41
0.900000
  1
型　式
  7
KANJI
 50
0.000000
 51
0.000000
  0
LINE
  8
15
 62
96
  6
CONTINUOUS
 10
620.172955
 20
119.026247
 11
800.226039
 21
119.026247
  0
LINE
  8
15
 62
96
  6
CONTINUOUS
 10
669.905314
 20
544.151584
 11
669.905314
 21
533.148340
  0
LINE
  8
15
 62
96
  6
CONTINUOUS
 10
620.172955
 20
130.029491
 11
800.226039
 21
130.029491
  0
TEXT
  8
15
 62
96
  6
CONTINUOUS
 10
632.576612
 20
121.526984
 40
6.001769
 41
0.944444
  1
図面履歴
  7
KANJI
 50
-0.000000
 51
0.000000
  0
LINE
  8
15
 62
96
  6
CONTINUOUS
 10
620.172955
 20
119.026247
 11
800.226039
 21
119.026247
  0
LINE
  8
15
 62
96
  6
CONTINUOUS
 10
670.187701
 20
130.029491
 11
670.187701
 21
119.026247
  0
LINE
  8
15
 62
96
  6
CONTINUOUS
 10
620.172955
 20
119.026247
 11
800.226039
 21
119.026247
  0
LINE
  8
15
 62
96
  6
CONTINUOUS
 10
710.241002
 20
66.007085
 11
710.241002
 21
54.007085
  0
LINE
  8
15
 62
96
  6
CONTINUOUS
 10
724.241002
 20
66.007095
 11
724.241002
 21
54.007095
  0
TEXT
  8
15
 62
96
  6
CONTINUOUS
 10
712.264335
 20
57.242959
 40
5.000000
 41
0.900000
  1
日付
  7
KANJI
 50
0.000000
 51
0.000000
  0
LINE
  8
15
 62
96
  6
CONTINUOUS
 10
776.227081
 20
66.007090
 11
776.227081
 21
54.007090
  0
LINE
  8
15
 62
96
  6
CONTINUOUS
 10
782.328460
 20
64.487090
 11
782.328460
 21
55.527090
  0
CIRCLE
  8
15
 62
96
  6
CONTINUOUS
 10
782.328460
 20
60.007090
 40
1.920000
  0
CIRCLE
  8
15
 62
96
  6
CONTINUOUS
 10
782.328460
 20
60.007090
 40
3.200000
  0
LINE
  8
15
 62
96
  6
CONTINUOUS
 10
787.607002
 20
61.927090
 11
787.607002
 21
58.087090
  0
LINE
  8
15
 62
96
  6
CONTINUOUS
 10
797.847002
 20
63.207090
 11
797.847002
 21
56.807090
  0
LINE
  8
15
 62
96
  6
CONTINUOUS
 10
787.607002
 20
61.927090
 11
797.847002
 21
63.207090
  0
LINE
  8
15
 62
96
  6
CONTINUOUS
 10
787.607002
 20
58.087090
 11
797.847002
 21
56.807090
  0
LINE
  8
15
 62
96
  6
CONTINUOUS
 10
777.848460
 20
60.007090
 11
798.939002
 21
60.007090
  0
TEXT
  8
15
 62
96
  6
CONTINUOUS
 10
651.605163
 20
78.365937
 40
5.001474
 41
0.900000
  1
承認
  7
KANJI
 50
0.000000
 51
0.000000
  0
TEXT
  8
15
 62
96
  6
CONTINUOUS
 10
701.619909
 20
78.365937
 40
5.001474
 41
0.900000
  1
検図
  7
KANJI
 50
0.000000
 51
0.000000
  0
TEXT
  8
15
 62
96
  6
CONTINUOUS
 10
720.835107
 20
69.141220
 40
10.002949
 41
0.900000
  1
辻
  7
KANJI
 50
0.000000
 51
0.000000
  0
TEXT
  8
15
 62
96
  6
CONTINUOUS
 10
664.974161
 20
69.141220
 40
10.002949
 41
0.900000
  1
仲代
  7
KANJI
 50
0.000000
 51
0.000000
  0
LINE
  8
15
 62
96
  6
CONTINUOUS
 10
800.227600
 20
66.010630
 11
620.173997
 21
66.010617
  0
LINE
  8
15
 62
96
  6
CONTINUOUS
 10
620.173997
 20
84.015925
 11
800.227600
 21
84.015925
  0
LINE
  8
3
 62
216
  6
CONTINUOUS
 10
620.227600
 20
120.150952
 11
620.227600
 21
127.150952
  0
LINE
  8
3
 62
216
  6
CONTINUOUS
 10
800.227600
 20
226.150980
 11
800.227600
 21
200.550970
  0
TEXT
  8
15
 62
96
  6
CONTINUOUS
 10
386.140130
 20
29.869057
 40
8.000000
 41
0.833333
  1
　
  7
KANJI
 50
0.000000
 51
0.000000
  0
TEXT
  8
15
 62
96
  6
DIVIDE
 10
714.201719
 20
535.649077
 40
6.001769
 41
0.833333
  1
０３０３０７０
  7
KANJI
 50
0.000000
 51
0.000000
  0
TEXT
  8
15
 62
96
  6
DIVIDE
 10
633.177831
 20
513.642589
 40
6.001769
 41
0.833333
  1
供給電源
  7
KANJI
 50
0.000000
 51
0.000000
  0
TEXT
  8
15
 62
96
  6
DIVIDE
 10
633.177831
 20
502.639345
 40
6.001769
 41
0.833333
  1
制御方式
  7
KANJI
 50
0.000000
 51
0.000000
  0
TEXT
  8
15
 62
96
  6
DIVIDE
 10
633.177831
 20
491.636101
 40
6.001769
 41
0.833333
  1
通信方式
  7
KANJI
 50
0.000000
 51
0.000000
  0
TEXT
  8
15
 62
96
  6
DIVIDE
 10
708.307837
 20
491.710315
 40
6.001769
 41
0.833333
  1
電源搬送波重畳方式
  7
KANJI
 50
0.000000
 51
0.000000
  0
TEXT
  8
15
 62
96
  6
DIVIDE
 10
636.178716
 20
480.632857
 40
6.001769
 41
0.833333
  1
重　量
  7
KANJI
 50
0.000000
 51
0.000000
  0
TEXT
  8
15
 62
96
  6
DIVIDE
 10
627.176062
 20
469.629613
 40
6.001769
 41
0.833333
  1
使用環境温度
  7
KANJI
 50
0.000000
 51
0.000000
  0
LINE
  8
15
 62
96
  6
CONTINUOUS
 10
669.905314
 20
522.172046
 11
669.905314
 21
467.128876
  0
LINE
  8
15
 62
96
  6
CONTINUOUS
 10
620.397411
 20
467.128876
 11
800.450495
 21
467.128876
  0
LINE
  8
15
 62
96
  6
CONTINUOUS
 10
620.397411
 20
456.125632
 11
800.450495
 21
456.125632
  0
TEXT
  8
15
 62
96
  6
CONTINUOUS
 10
786.668244
 20
447.856391
 40
6.001769
 41
0.833333
  1
１点
  7
KANJI
 50
0.000000
 51
0.000000
  0
LINE
  8
15
 62
96
  6
CONTINUOUS
 10
619.890050
 20
423.115900
 11
799.929208
 21
423.115900
  0
LINE
  8
15
 62
96
  6
CONTINUOUS
 10
620.191261
 20
434.119144
 11
800.230420
 21
434.119144
  0
TEXT
  8
15
 62
96
  6
CONTINUOUS
 10
787.344685
 20
425.423857
 40
6.001769
 41
0.833333
  1
１点
  7
KANJI
 50
0.000000
 51
0.000000
  0
TEXT
  8
15
 62
96
  6
CONTINUOUS
 10
633.401244
 20
447.623125
 40
6.001769
 41
0.833333
  1
解錠入力
  7
KANJI
 50
0.000000
 51
0.000000
  0
TEXT
  8
15
 62
96
  6
CONTINUOUS
 10
633.882469
 20
426.136322
 40
6.000000
 41
0.944444
  1
照合出力
  7
KANJI
 50
0.000000
 51
0.000000
  0
LINE
  8
15
 62
96
  6
CONTINUOUS
 10
783.938415
 20
434.119144
 11
783.938415
 21
423.115900
  0
LINE
  8
15
 62
96
  6
CONTINUOUS
 10
669.904795
 20
434.119144
 11
669.904795
 21
423.115900
  0
LINE
  8
15
 62
96
  6
CONTINUOUS
 10
784.236288
 20
456.125632
 11
784.236288
 21
445.122388
  0
LINE
  8
15
 62
96
  6
CONTINUOUS
 10
670.202668
 20
456.125632
 11
670.202668
 21
445.122388
  0
LINE
  8
15
 62
96
  6
CONTINUOUS
 10
620.397929
 20
445.122388
 11
800.451013
 21
445.122388
  0
TEXT
  8
15
 62
96
  6
CONTINUOUS
 10
625.843729
 20
69.030416
 40
6.001769
 41
0.833333
  1
１：１
  7
KANJI
 50
0.000000
 51
0.000000
  0
TEXT
  8
15
 62
96
  6
CONTINUOUS
 10
767.671106
 20
69.141220
 40
10.002949
 41
0.900000
  1
江辺
  7
KANJI
 50
0.000000
 51
0.000000
  0
TEXT
  8
15
 62
96
  6
CONTINUOUS
 10
728.811045
 20
56.887915
 40
6.001769
 41
0.603448
  1
2007年09月05日
  7
KANJI
 50
0.000000
 51
0.000000
  0
TEXT
  8
15
 62
96
  6
CONTINUOUS
 10
654.568681
 20
56.526660
 40
7.000000
 41
0.500000
  1
G19003-01-07905
  7
KANJI
 50
0.000000
 51
0.000000
  0
TEXT
  8
15
 62
96
  6
CONTINUOUS
 10
712.587058
 20
121.541683
 40
6.000000
 41
0.500000
  1
G19003-01-03715
  7
KANJI
 50
0.000000
 51
0.000000
  0
TEXT
  8
15
 62
96
  6
CONTINUOUS
 10
668.787288
 20
105.022118
 40
10.002949
 41
0.900000
  1
Ｔ－３８３０ＩＦ
  7
KANJI
 50
0.000000
 51
0.000000
  0
ARC
  8
1
 62
7
  6
CONTINUOUS
 10
254.037362
 20
211.262259
 40
1.600000
 50
180.000000
 51
-90.000000
  0
ARC
  8
1
 62
7
  6
CONTINUOUS
 10
264.037362
 20
220.062254
 40
1.600000
 50
180.000000
 51
-90.000000
  0
ARC
  8
1
 62
7
  6
CONTINUOUS
 10
249.037362
 20
206.862257
 40
1.600000
 50
180.000000
 51
-90.000000
  0
ARC
  8
1
 62
7
  6
CONTINUOUS
 10
259.037362
 20
215.662253
 40
1.600000
 50
180.000000
 51
-90.000000
  0
ARC
  8
1
 62
7
  6
CONTINUOUS
 10
244.037362
 20
202.462256
 40
1.600000
 50
180.000000
 51
-90.000000
  0
ARC
  8
1
 62
7
  6
CONTINUOUS
 10
258.357354
 20
215.062262
 40
3.800000
 50
180.000000
 51
-90.000000
  0
ARC
  8
1
 62
7
  6
CONTINUOUS
 10
268.357354
 20
223.862257
 40
3.800000
 50
180.000000
 51
-90.000000
  0
ARC
  8
1
 62
7
  6
CONTINUOUS
 10
269.037362
 20
224.462256
 40
1.600000
 50
180.000000
 51
-90.000000
  0
ARC
  8
1
 62
7
  6
CONTINUOUS
 10
243.357339
 20
201.862257
 40
3.800000
 50
180.000000
 51
-90.000000
  0
ARC
  8
1
 62
7
  6
CONTINUOUS
 10
253.357354
 20
210.662261
 40
3.800000
 50
180.000000
 51
-90.000000
  0
ARC
  8
1
 62
7
  6
CONTINUOUS
 10
248.357339
 20
206.262259
 40
3.800000
 50
180.000000
 51
-90.000000
  0
ARC
  8
1
 62
7
  6
CONTINUOUS
 10
239.637337
 20
183.265877
 40
7.200000
 50
179.999992
 51
-90.000000
  0
ARC
  8
1
 62
7
  6
CONTINUOUS
 10
240.437356
 20
185.065880
 40
3.000000
 50
180.000000
 51
-90.000000
  0
ARC
  8
1
 62
7
  6
CONTINUOUS
 10
239.557351
 20
184.265873
 40
5.000000
 50
179.999978
 51
-90.000000
  0
ARC
  8
1
 62
7
  6
CONTINUOUS
 10
239.557351
 20
183.265873
 40
10.000000
 50
179.999989
 51
-90.000000
  0
ARC
  8
1
 62
7
  6
CONTINUOUS
 10
263.357354
 20
219.462264
 40
3.800000
 50
180.000000
 51
-90.000000
  0
LINE
  8
1
 62
7
  6
CONTINUOUS
 10
308.067528
 20
198.062253
 11
374.397317
 21
198.062253
  0
LINE
  8
1
 62
7
  6
CONTINUOUS
 10
309.807137
 20
200.862257
 11
374.397317
 21
200.862257
  0
LINE
  8
1
 62
7
  6
CONTINUOUS
 10
310.389031
 20
202.462256
 11
374.397317
 21
202.462256
  0
LINE
  8
1
 62
7
  6
CONTINUOUS
 10
310.413674
 20
205.262259
 11
374.397317
 21
205.262259
  0
LINE
  8
1
 62
7
  6
CONTINUOUS
 10
309.714135
 20
206.862257
 11
374.397317
 21
206.862257
  0
LINE
  8
1
 62
7
  6
CONTINUOUS
 10
307.672723
 20
209.662261
 11
374.397317
 21
209.662261
  0
LINE
  8
1
 62
7
  6
CONTINUOUS
 10
306.453744
 20
211.262259
 11
374.397317
 21
211.262259
  0
LINE
  8
1
 62
7
  6
CONTINUOUS
 10
305.093987
 20
214.062254
 11
374.397317
 21
214.062254
  0
LINE
  8
1
 62
7
  6
CONTINUOUS
 10
304.966683
 20
215.662261
 11
374.397317
 21
215.662261
  0
LINE
  8
1
 62
7
  6
CONTINUOUS
 10
305.627373
 20
218.462256
 11
374.397317
 21
218.462256
  0
LINE
  8
1
 62
7
  6
CONTINUOUS
 10
306.393578
 20
220.062254
 11
374.397317
 21
220.062254
  0
LINE
  8
1
 62
7
  6
CONTINUOUS
 10
308.282601
 20
222.862257
 11
374.397317
 21
222.862257
  0
LINE
  8
1
 62
7
  6
CONTINUOUS
 10
444.592450
 20
182.065880
 11
387.097344
 21
182.065880
  0
LINE
  8
1
 62
7
  6
CONTINUOUS
 10
447.188290
 20
173.265874
 11
387.097344
 21
173.265874
  0
LINE
  8
1
 62
7
  6
CONTINUOUS
 10
444.063271
 20
179.265873
 11
387.097344
 21
179.265873
  0
LINE
  8
1
 62
7
  6
CONTINUOUS
 10
446.067277
 20
176.065877
 11
387.097344
 21
176.065877
  0
LINE
  8
1
 62
7
  6
CONTINUOUS
 10
269.037362
 20
222.862257
 11
304.282601
 21
222.862257
  0
LINE
  8
1
 62
7
  6
CONTINUOUS
 10
263.357354
 20
215.662261
 11
300.966683
 21
215.662261
  0
LINE
  8
1
 62
7
  6
CONTINUOUS
 10
259.037362
 20
214.062254
 11
301.093987
 21
214.062254
  0
LINE
  8
1
 62
7
  6
CONTINUOUS
 10
258.357354
 20
211.262259
 11
302.453744
 21
211.262259
  0
LINE
  8
1
 62
7
  6
CONTINUOUS
 10
254.037362
 20
209.662261
 11
303.672723
 21
209.662261
  0
LINE
  8
1
 62
7
  6
CONTINUOUS
 10
283.934975
 20
176.065877
 11
324.097344
 21
176.065877
  0
LINE
  8
1
 62
7
  6
CONTINUOUS
 10
282.162011
 20
179.265873
 11
324.097344
 21
179.265873
  0
LINE
  8
1
 62
7
  6
CONTINUOUS
 10
283.018807
 20
182.065880
 11
324.097344
 21
182.065880
  0
LINE
  8
1
 62
7
  6
CONTINUOUS
 10
286.522088
 20
173.265874
 11
324.097344
 21
173.265874
  0
LINE
  8
1
 62
7
  6
CONTINUOUS
 10
264.037362
 20
218.462256
 11
301.627373
 21
218.462256
  0
LINE
  8
1
 62
7
  6
CONTINUOUS
 10
268.357354
 20
220.062254
 11
302.393578
 21
220.062254
  0
LINE
  8
1
 62
7
  6
CONTINUOUS
 10
253.357354
 20
206.862257
 11
305.714135
 21
206.862257
  0
LINE
  8
1
 62
7
  6
CONTINUOUS
 10
249.037362
 20
205.262259
 11
306.413674
 21
205.262259
  0
LINE
  8
1
 62
7
  6
CONTINUOUS
 10
248.357339
 20
202.462256
 11
306.389031
 21
202.462256
  0
LINE
  8
1
 62
7
  6
CONTINUOUS
 10
244.037362
 20
200.862257
 11
305.807137
 21
200.862257
  0
LINE
  8
1
 62
7
  6
CONTINUOUS
 10
243.357339
 20
198.062253
 11
304.067528
 21
198.062253
  0
LINE
  8
1
 62
7
  6
CONTINUOUS
 10
254.628163
 20
292.262232
 11
254.557351
 21
215.062262
  0
LINE
  8
1
 62
7
  6
CONTINUOUS
 10
242.508168
 20
292.262232
 11
242.437356
 21
202.462256
  0
LINE
  8
1
 62
7
  6
CONTINUOUS
 10
239.628163
 20
292.262232
 11
239.557351
 21
201.862257
  0
LINE
  8
1
 62
7
  6
CONTINUOUS
 10
239.637337
 20
176.065877
 11
279.934975
 21
176.065877
  0
LINE
  8
1
 62
7
  6
CONTINUOUS
 10
244.628163
 20
292.262232
 11
244.557351
 21
206.262259
  0
LINE
  8
1
 62
7
  6
CONTINUOUS
 10
247.508168
 20
292.262232
 11
247.437356
 21
206.862257
  0
LINE
  8
1
 62
7
  6
CONTINUOUS
 10
324.097344
 20
175.165883
 11
357.097344
 21
175.165883
  0
LINE
  8
1
 62
7
  6
CONTINUOUS
 10
324.097344
 20
180.165883
 11
357.097344
 21
180.165883
  0
LINE
  8
1
 62
7
  6
CONTINUOUS
 10
357.097344
 20
180.165883
 11
357.097344
 21
175.165883
  0
LINE
  8
1
 62
7
  6
CONTINUOUS
 10
324.097344
 20
186.165883
 11
324.097344
 21
169.165883
  0
LINE
  8
1
 62
7
  6
CONTINUOUS
 10
362.097344
 20
188.165883
 11
362.097344
 21
167.165883
  0
LINE
  8
1
 62
7
  6
CONTINUOUS
 10
343.097344
 20
188.165883
 11
343.097344
 21
167.165883
  0
LINE
  8
1
 62
7
  6
CONTINUOUS
 10
324.097344
 20
186.165883
 11
343.097344
 21
186.165883
  0
LINE
  8
1
 62
7
  6
CONTINUOUS
 10
324.097344
 20
169.165883
 11
343.097344
 21
169.165883
  0
LINE
  8
1
 62
7
  6
CONTINUOUS
 10
343.097344
 20
188.165883
 11
362.097344
 21
188.165883
  0
LINE
  8
1
 62
7
  6
CONTINUOUS
 10
324.097344
 20
182.565876
 11
343.097344
 21
182.565876
  0
LINE
  8
1
 62
7
  6
CONTINUOUS
 10
324.097344
 20
172.765874
 11
343.097344
 21
172.765874
  0
LINE
  8
1
 62
7
  6
CONTINUOUS
 10
343.097344
 20
183.165883
 11
362.097344
 21
183.165883
  0
LINE
  8
1
 62
7
  6
CONTINUOUS
 10
384.397324
 20
203.062254
 11
384.397324
 21
204.662253
  0
LINE
  8
1
 62
7
  6
CONTINUOUS
 10
384.397324
 20
209.062254
 11
374.397317
 21
209.062254
  0
LINE
  8
1
 62
7
  6
CONTINUOUS
 10
384.397324
 20
200.262251
 11
374.397317
 21
200.262251
  0
LINE
  8
1
 62
7
  6
CONTINUOUS
 10
384.397324
 20
198.662259
 11
374.397317
 21
198.662259
  0
LINE
  8
1
 62
7
  6
CONTINUOUS
 10
384.397324
 20
204.662253
 11
374.397317
 21
204.662253
  0
LINE
  8
1
 62
7
  6
CONTINUOUS
 10
384.397324
 20
198.662259
 11
384.397324
 21
200.262251
  0
LINE
  8
1
 62
7
  6
CONTINUOUS
 10
234.628163
 20
292.262232
 11
234.557351
 21
184.265873
  0
LINE
  8
1
 62
7
  6
CONTINUOUS
 10
239.557351
 20
173.265874
 11
282.522088
 21
173.265874
  0
LINE
  8
1
 62
7
  6
CONTINUOUS
 10
232.508168
 20
292.262232
 11
232.437356
 21
183.265877
  0
LINE
  8
1
 62
7
  6
CONTINUOUS
 10
249.628163
 20
292.262232
 11
249.557351
 21
210.662261
  0
LINE
  8
1
 62
7
  6
CONTINUOUS
 10
252.508168
 20
292.262232
 11
252.437356
 21
211.262259
  0
LINE
  8
1
 62
7
  6
CONTINUOUS
 10
237.508168
 20
292.262232
 11
237.437356
 21
185.065880
  0
LINE
  8
1
 62
7
  6
CONTINUOUS
 10
239.557351
 20
179.265873
 11
278.162011
 21
179.265873
  0
LINE
  8
1
 62
7
  6
CONTINUOUS
 10
343.097344
 20
167.165883
 11
362.097344
 21
167.165883
  0
LINE
  8
1
 62
7
  6
CONTINUOUS
 10
387.097344
 20
168.665883
 11
362.097344
 21
168.665883
  0
LINE
  8
1
 62
7
  6
CONTINUOUS
 10
387.097344
 20
186.665886
 11
362.097344
 21
186.665886
  0
LINE
  8
1
 62
7
  6
CONTINUOUS
 10
259.628163
 20
292.262232
 11
259.557351
 21
219.462264
  0
LINE
  8
1
 62
7
  6
CONTINUOUS
 10
387.097344
 20
168.665883
 11
387.097344
 21
186.665886
  0
LINE
  8
1
 62
7
  6
CONTINUOUS
 10
357.097344
 20
175.865880
 11
357.097344
 21
179.465870
  0
LINE
  8
1
 62
7
  6
CONTINUOUS
 10
262.508168
 20
292.262232
 11
262.437356
 21
220.062254
  0
LINE
  8
1
 62
7
  6
CONTINUOUS
 10
257.508168
 20
292.262232
 11
257.437356
 21
215.662253
  0
LINE
  8
1
 62
7
  6
CONTINUOUS
 10
264.628163
 20
292.262232
 11
264.557351
 21
223.862257
  0
LINE
  8
1
 62
7
  6
CONTINUOUS
 10
363.097344
 20
171.665883
 11
362.097344
 21
171.665883
  0
LINE
  8
1
 62
7
  6
CONTINUOUS
 10
363.097344
 20
168.665883
 11
363.097344
 21
171.665883
  0
LINE
  8
1
 62
7
  6
CONTINUOUS
 10
511.667440
 20
173.265874
 11
451.188290
 21
173.265874
  0
LINE
  8
1
 62
7
  6
CONTINUOUS
 10
521.667439
 20
173.865880
 11
511.667440
 21
173.865880
  0
LINE
  8
1
 62
7
  6
CONTINUOUS
 10
521.667439
 20
181.465874
 11
511.667440
 21
181.465874
  0
LINE
  8
1
 62
7
  6
CONTINUOUS
 10
511.667440
 20
173.265874
 11
511.667440
 21
176.065877
  0
LINE
  8
1
 62
7
  6
CONTINUOUS
 10
521.667439
 20
173.865880
 11
521.667439
 21
175.465871
  0
LINE
  8
1
 62
7
  6
CONTINUOUS
 10
521.667439
 20
179.865880
 11
511.667440
 21
179.865880
  0
LINE
  8
1
 62
7
  6
CONTINUOUS
 10
521.667439
 20
179.865880
 11
521.667439
 21
181.465874
  0
LINE
  8
1
 62
7
  6
CONTINUOUS
 10
511.667440
 20
182.065880
 11
448.592450
 21
182.065880
  0
LINE
  8
1
 62
7
  6
CONTINUOUS
 10
511.667440
 20
176.065877
 11
450.067277
 21
176.065877
  0
LINE
  8
1
 62
7
  6
CONTINUOUS
 10
521.667439
 20
175.465871
 11
511.667440
 21
175.465871
  0
LINE
  8
1
 62
7
  6
CONTINUOUS
 10
511.667440
 20
179.265873
 11
448.063271
 21
179.265873
  0
LINE
  8
1
 62
7
  6
CONTINUOUS
 10
511.667440
 20
179.265873
 11
511.667440
 21
182.065880
  0
LINE
  8
1
 62
7
  6
CONTINUOUS
 10
240.437356
 20
182.065880
 11
279.018807
 21
182.065880
  0
LINE
  8
1
 62
7
  6
CONTINUOUS
 10
229.628163
 20
292.262232
 11
229.557351
 21
183.265873
  0
LINE
  8
1
 62
7
  6
CONTINUOUS
 10
384.397324
 20
203.062254
 11
374.397317
 21
203.062254
  0
LINE
  8
1
 62
7
  6
CONTINUOUS
 10
384.397324
 20
217.862250
 11
374.397317
 21
217.862250
  0
LINE
  8
1
 62
7
  6
CONTINUOUS
 10
384.397324
 20
220.662261
 11
384.397324
 21
222.262251
  0
LINE
  8
1
 62
7
  6
CONTINUOUS
 10
267.508168
 20
292.262232
 11
267.437356
 21
224.462256
  0
LINE
  8
1
 62
7
  6
CONTINUOUS
 10
384.397324
 20
207.462256
 11
384.397324
 21
209.062254
  0
LINE
  8
1
 62
7
  6
CONTINUOUS
 10
374.397317
 20
220.062254
 11
374.397317
 21
222.862257
  0
LINE
  8
1
 62
7
  6
CONTINUOUS
 10
374.397317
 20
198.062253
 11
374.397317
 21
200.862257
  0
LINE
  8
1
 62
7
  6
CONTINUOUS
 10
374.397317
 20
202.462256
 11
374.397317
 21
205.262259
  0
LINE
  8
1
 62
7
  6
CONTINUOUS
 10
374.397317
 20
206.862257
 11
374.397317
 21
209.662261
  0
LINE
  8
1
 62
7
  6
CONTINUOUS
 10
374.397317
 20
211.262259
 11
374.397317
 21
214.062254
  0
LINE
  8
1
 62
7
  6
CONTINUOUS
 10
374.397317
 20
215.662261
 11
374.397317
 21
218.462256
  0
LINE
  8
1
 62
7
  6
CONTINUOUS
 10
384.397324
 20
211.862257
 11
384.397324
 21
213.462248
  0
LINE
  8
1
 62
7
  6
CONTINUOUS
 10
384.397324
 20
207.462256
 11
374.397317
 21
207.462256
  0
LINE
  8
1
 62
7
  6
CONTINUOUS
 10
384.397324
 20
216.262259
 11
384.397324
 21
217.862250
  0
LINE
  8
1
 62
7
  6
CONTINUOUS
 10
384.397324
 20
216.262259
 11
374.397317
 21
216.262259
  0
LINE
  8
1
 62
7
  6
CONTINUOUS
 10
384.397324
 20
211.862257
 11
374.397317
 21
211.862257
  0
LINE
  8
1
 62
7
  6
CONTINUOUS
 10
384.397324
 20
213.462248
 11
374.397317
 21
213.462248
  0
LINE
  8
1
 62
7
  6
CONTINUOUS
 10
384.397324
 20
220.662261
 11
374.397317
 21
220.662261
  0
LINE
  8
1
 62
7
  6
CONTINUOUS
 10
384.397324
 20
222.262251
 11
374.397317
 21
222.262251
  0
TEXT
  8
1
 62
7
  6
CONTINUOUS
 10
238.067909
 20
377.062254
 40
5.600000
 41
0.892857
  1
0305
  7
KANJI
 50
0.000000
 51
0.000000
  0
LINE
  8
1
 62
7
  6
CONTINUOUS
 10
250.768159
 20
307.062253
 11
250.768159
 21
300.662253
  0
LINE
  8
1
 62
7
  6
CONTINUOUS
 10
257.168159
 20
307.062254
 11
250.768159
 21
307.062253
  0
LINE
  8
1
 62
7
  6
CONTINUOUS
 10
257.168160
 20
300.662254
 11
257.168159
 21
307.062254
  0
LINE
  8
1
 62
7
  6
CONTINUOUS
 10
250.768159
 20
300.662253
 11
257.168160
 21
300.662254
  0
LINE
  8
1
 62
7
  6
CONTINUOUS
 10
257.168160
 20
300.662254
 11
257.168159
 21
307.062254
  0
LINE
  8
1
 62
7
  6
CONTINUOUS
 10
250.768159
 20
300.662253
 11
250.768159
 21
307.062253
  0
LINE
  8
1
 62
7
  6
CONTINUOUS
 10
258.468159
 20
300.662254
 11
258.468159
 21
307.062254
  0
LINE
  8
1
 62
7
  6
CONTINUOUS
 10
249.468159
 20
300.662253
 11
249.468159
 21
307.062253
  0
LINE
  8
1
 62
7
  6
CONTINUOUS
 10
258.468159
 20
300.662254
 11
249.468159
 21
300.662253
  0
LINE
  8
1
 62
7
  6
CONTINUOUS
 10
258.468159
 20
307.062254
 11
249.468159
 21
307.062253
  0
LINE
  8
1
 62
7
  6
CONTINUOUS
 10
231.268159
 20
360.362254
 11
229.668159
 21
360.362254
  0
LINE
  8
1
 62
7
  6
CONTINUOUS
 10
231.268159
 20
358.362254
 11
229.668159
 21
358.362254
  0
LINE
  8
1
 62
7
  6
CONTINUOUS
 10
231.268159
 20
360.962254
 11
231.268159
 21
357.762254
  0
LINE
  8
1
 62
7
  6
CONTINUOUS
 10
229.668159
 20
360.962254
 11
229.668159
 21
357.762254
  0
LINE
  8
1
 62
7
  6
CONTINUOUS
 10
231.268159
 20
357.762254
 11
229.668159
 21
357.762254
  0
LINE
  8
1
 62
7
  6
CONTINUOUS
 10
231.268159
 20
360.962254
 11
229.668159
 21
360.962254
  0
LINE
  8
1
 62
7
  6
CONTINUOUS
 10
221.668159
 20
347.062254
 11
219.268159
 21
347.062254
  0
LINE
  8
1
 62
7
  6
CONTINUOUS
 10
221.668159
 20
344.662254
 11
219.268159
 21
344.662254
  0
LINE
  8
1
 62
7
  6
CONTINUOUS
 10
221.668159
 20
343.862254
 11
219.268159
 21
343.862254
  0
LINE
  8
1
 62
7
  6
CONTINUOUS
 10
221.668159
 20
347.862254
 11
219.268159
 21
347.862254
  0
LINE
  8
1
 62
7
  6
CONTINUOUS
 10
219.268159
 20
347.862254
 11
219.268159
 21
343.862254
  0
LINE
  8
1
 62
7
  6
CONTINUOUS
 10
221.668159
 20
347.862254
 11
221.668159
 21
343.862254
  0
LINE
  8
1
 62
7
  6
CONTINUOUS
 10
226.668159
 20
347.062254
 11
224.268159
 21
347.062254
  0
LINE
  8
1
 62
7
  6
CONTINUOUS
 10
226.668159
 20
344.662254
 11
226.668159
 21
347.062254
  0
LINE
  8
1
 62
7
  6
CONTINUOUS
 10
224.268159
 20
344.662254
 11
226.668159
 21
344.662254
  0
LINE
  8
1
 62
7
  6
CONTINUOUS
 10
224.268159
 20
347.062254
 11
224.268159
 21
344.662254
  0
LINE
  8
1
 62
7
  6
CONTINUOUS
 10
224.268159
 20
344.662254
 11
226.668159
 21
344.662254
  0
LINE
  8
1
 62
7
  6
CONTINUOUS
 10
224.268159
 20
347.062254
 11
226.668159
 21
347.062254
  0
LINE
  8
1
 62
7
  6
CONTINUOUS
 10
224.268159
 20
347.862254
 11
226.668159
 21
347.862254
  0
LINE
  8
1
 62
7
  6
CONTINUOUS
 10
224.268159
 20
343.862254
 11
226.668159
 21
343.862254
  0
LINE
  8
1
 62
7
  6
CONTINUOUS
 10
226.668159
 20
343.862254
 11
226.668159
 21
347.862254
  0
LINE
  8
1
 62
7
  6
CONTINUOUS
 10
224.268159
 20
343.862254
 11
224.268159
 21
347.862254
  0
LINE
  8
1
 62
7
  6
CONTINUOUS
 10
342.468159
 20
331.062254
 11
342.468159
 21
332.662254
  0
LINE
  8
1
 62
7
  6
CONTINUOUS
 10
340.468159
 20
331.062254
 11
340.468159
 21
332.662254
  0
LINE
  8
1
 62
7
  6
CONTINUOUS
 10
343.068159
 20
331.062254
 11
339.868159
 21
331.062254
  0
LINE
  8
1
 62
7
  6
CONTINUOUS
 10
343.068159
 20
332.662254
 11
339.868159
 21
332.662254
  0
LINE
  8
1
 62
7
  6
CONTINUOUS
 10
339.868159
 20
331.062254
 11
339.868159
 21
332.662254
  0
LINE
  8
1
 62
7
  6
CONTINUOUS
 10
343.068159
 20
331.062254
 11
343.068159
 21
332.662254
  0
LINE
  8
1
 62
7
  6
CONTINUOUS
 10
241.268159
 20
300.662254
 11
241.268159
 21
307.062254
  0
LINE
  8
1
 62
7
  6
CONTINUOUS
 10
231.668159
 20
300.662254
 11
241.268159
 21
300.662254
  0
LINE
  8
1
 62
7
  6
CONTINUOUS
 10
231.668159
 20
307.062254
 11
231.668159
 21
300.662254
  0
LINE
  8
1
 62
7
  6
CONTINUOUS
 10
241.268159
 20
307.062254
 11
231.668159
 21
307.062254
  0
LINE
  8
1
 62
7
  6
CONTINUOUS
 10
231.668159
 20
307.062254
 11
231.668159
 21
300.662254
  0
LINE
  8
1
 62
7
  6
CONTINUOUS
 10
241.268159
 20
307.062254
 11
241.268159
 21
300.662254
  0
LINE
  8
1
 62
7
  6
CONTINUOUS
 10
242.868159
 20
307.062254
 11
242.868159
 21
300.662254
  0
LINE
  8
1
 62
7
  6
CONTINUOUS
 10
230.068159
 20
300.662254
 11
242.868159
 21
300.662254
  0
LINE
  8
1
 62
7
  6
CONTINUOUS
 10
230.068159
 20
307.062254
 11
230.068159
 21
300.662254
  0
LINE
  8
1
 62
7
  6
CONTINUOUS
 10
230.068159
 20
307.062254
 11
242.868159
 21
307.062254
  0
LINE
  8
1
 62
7
  6
CONTINUOUS
 10
249.968160
 20
321.462244
 11
247.968160
 21
321.462244
  0
LINE
  8
1
 62
7
  6
CONTINUOUS
 10
256.468167
 20
323.662263
 11
256.068154
 21
323.262250
  0
LINE
  8
1
 62
7
  6
CONTINUOUS
 10
249.968159
 20
327.462244
 11
247.968159
 21
327.462244
  0
LINE
  8
1
 62
7
  6
CONTINUOUS
 10
256.468159
 20
326.062237
 11
256.068157
 21
326.462239
  0
LINE
  8
1
 62
7
  6
CONTINUOUS
 10
249.968159
 20
324.362253
 11
247.968159
 21
324.362253
  0
LINE
  8
1
 62
7
  6
CONTINUOUS
 10
247.968159
 20
322.262247
 11
247.968160
 21
321.462244
  0
LINE
  8
1
 62
7
  6
CONTINUOUS
 10
249.968159
 20
329.362253
 11
254.968159
 21
329.362254
  0
LINE
  8
1
 62
7
  6
CONTINUOUS
 10
247.968159
 20
328.262247
 11
247.968159
 21
327.462244
  0
LINE
  8
1
 62
7
  6
CONTINUOUS
 10
249.968159
 20
325.362253
 11
247.968159
 21
325.362253
  0
LINE
  8
1
 62
7
  6
CONTINUOUS
 10
249.968159
 20
322.262247
 11
247.968159
 21
322.262247
  0
LINE
  8
1
 62
7
  6
CONTINUOUS
 10
249.968159
 20
328.262247
 11
247.968159
 21
328.262247
  0
LINE
  8
1
 62
7
  6
CONTINUOUS
 10
256.068165
 20
323.262248
 11
254.968159
 21
323.262248
  0
LINE
  8
1
 62
7
  6
CONTINUOUS
 10
254.968159
 20
329.362254
 11
254.968160
 21
320.362254
  0
LINE
  8
1
 62
7
  6
CONTINUOUS
 10
256.068165
 20
326.462245
 11
254.968159
 21
326.462245
  0
LINE
  8
1
 62
7
  6
CONTINUOUS
 10
256.468159
 20
326.062236
 11
256.468159
 21
323.662242
  0
LINE
  8
1
 62
7
  6
CONTINUOUS
 10
249.968159
 20
329.362253
 11
249.968160
 21
320.362253
  0
LINE
  8
1
 62
7
  6
CONTINUOUS
 10
254.968160
 20
320.362254
 11
249.968160
 21
320.362253
  0
LINE
  8
1
 62
7
  6
CONTINUOUS
 10
247.968159
 20
325.362253
 11
247.968159
 21
324.362253
  0
TEXT
  8
1
 62
7
  6
CONTINUOUS
 10
318.768165
 20
370.647816
 40
3.400000
 41
0.833333
  1
0
  7
KANJI
 50
90.000003
 51
0.000000
  0
TEXT
  8
1
 62
7
  6
CONTINUOUS
 10
323.861759
 20
366.065957
 40
3.400000
 41
1.000000
  1
8
  7
KANJI
 50
161.999998
 51
0.000000
  0
TEXT
  8
1
 62
7
  6
CONTINUOUS
 10
320.570592
 20
367.529378
 40
3.400000
 41
1.000000
  1
9
  7
KANJI
 50
125.999997
 51
0.000000
  0
TEXT
  8
1
 62
7
  6
CONTINUOUS
 10
327.384557
 20
366.816520
 40
3.400000
 41
1.000000
  1
7
  7
KANJI
 50
198.000002
 51
0.000000
  0
TEXT
  8
1
 62
7
  6
CONTINUOUS
 10
329.793384
 20
369.494380
 40
3.400000
 41
1.000000
  1
6
  7
KANJI
 50
234.000003
 51
0.000000
  0
TEXT
  8
1
 62
7
  6
CONTINUOUS
 10
330.168199
 20
373.076691
 40
3.400000
 41
1.000000
  1
5
  7
KANJI
 50
269.999997
 51
0.000000
  0
TEXT
  8
1
 62
7
  6
CONTINUOUS
 10
328.365727
 20
376.195144
 40
3.400000
 41
1.000000
  1
4
  7
KANJI
 50
305.999998
 51
0.000000
  0
TEXT
  8
1
 62
7
  6
CONTINUOUS
 10
325.074559
 20
377.658566
 40
3.400000
 41
1.000000
  1
3
  7
KANJI
 50
341.999999
 51
0.000000
  0
TEXT
  8
1
 62
7
  6
CONTINUOUS
 10
321.551761
 20
376.908002
 40
3.400000
 41
1.000000
  1
2
  7
KANJI
 50
18.000001
 51
0.000000
  0
TEXT
  8
1
 62
7
  6
CONTINUOUS
 10
319.142935
 20
374.230143
 40
3.400000
 41
0.666667
  1
1
  7
KANJI
 50
54.000002
 51
0.000000
  0
CIRCLE
  8
1
 62
7
  6
CONTINUOUS
 10
324.468159
 20
371.862254
 40
4.000000
  0
LINE
  8
1
 62
7
  6
CONTINUOUS
 10
334.468159
 20
361.862254
 11
334.468159
 21
381.862254
  0
LINE
  8
1
 62
7
  6
CONTINUOUS
 10
314.468159
 20
361.862254
 11
314.468159
 21
381.862254
  0
LINE
  8
1
 62
7
  6
CONTINUOUS
 10
320.868167
 20
371.862265
 11
322.868157
 21
370.462272
  0
LINE
  8
1
 62
7
  6
CONTINUOUS
 10
322.868168
 20
372.662272
 11
328.068150
 21
372.662272
  0
LINE
  8
1
 62
7
  6
CONTINUOUS
 10
322.868168
 20
370.462260
 11
322.868168
 21
371.062266
  0
LINE
  8
1
 62
7
  6
CONTINUOUS
 10
314.468199
 20
378.862238
 11
317.468200
 21
381.862239
  0
LINE
  8
1
 62
7
  6
CONTINUOUS
 10
314.468159
 20
361.862254
 11
334.468159
 21
361.862254
  0
LINE
  8
1
 62
7
  6
CONTINUOUS
 10
314.468159
 20
381.862254
 11
334.468159
 21
381.862254
  0
LINE
  8
1
 62
7
  6
CONTINUOUS
 10
320.868174
 20
371.862276
 11
322.868167
 21
373.262271
  0
LINE
  8
1
 62
7
  6
CONTINUOUS
 10
322.868168
 20
372.662272
 11
322.868168
 21
373.262278
  0
LINE
  8
1
 62
7
  6
CONTINUOUS
 10
328.068150
 20
371.062266
 11
328.068150
 21
372.662272
  0
LINE
  8
1
 62
7
  6
CONTINUOUS
 10
322.868168
 20
371.062266
 11
328.068150
 21
371.062266
  0
LINE
  8
1
 62
7
  6
CONTINUOUS
 10
314.468159
 20
378.942254
 11
310.668159
 21
378.942254
  0
LINE
  8
1
 62
7
  6
CONTINUOUS
 10
309.068160
 20
370.282254
 11
314.468159
 21
370.282254
  0
LINE
  8
1
 62
7
  6
CONTINUOUS
 10
314.468159
 20
379.942254
 11
310.668159
 21
379.942254
  0
LINE
  8
1
 62
7
  6
CONTINUOUS
 10
309.068160
 20
373.362254
 11
314.468159
 21
373.362254
  0
LINE
  8
1
 62
7
  6
CONTINUOUS
 10
309.068160
 20
375.362254
 11
309.068160
 21
373.362254
  0
LINE
  8
1
 62
7
  6
CONTINUOUS
 10
309.068160
 20
380.442254
 11
309.068160
 21
378.442254
  0
LINE
  8
1
 62
7
  6
CONTINUOUS
 10
309.068160
 20
368.282254
 11
314.468159
 21
368.282254
  0
LINE
  8
1
 62
7
  6
CONTINUOUS
 10
309.068160
 20
378.442254
 11
314.468159
 21
378.442254
  0
LINE
  8
1
 62
7
  6
CONTINUOUS
 10
314.468159
 20
368.782254
 11
310.668159
 21
368.782254
  0
LINE
  8
1
 62
7
  6
CONTINUOUS
 10
310.668159
 20
373.862254
 11
310.668159
 21
374.862254
  0
LINE
  8
1
 62
7
  6
CONTINUOUS
 10
309.068160
 20
370.282254
 11
309.068160
 21
368.282254
  0
LINE
  8
1
 62
7
  6
CONTINUOUS
 10
309.068160
 20
380.442254
 11
314.468159
 21
380.442254
  0
LINE
  8
1
 62
7
  6
CONTINUOUS
 10
309.068160
 20
375.362254
 11
314.468159
 21
375.362254
  0
LINE
  8
1
 62
7
  6
CONTINUOUS
 10
310.668159
 20
363.782254
 11
310.668159
 21
364.782254
  0
LINE
  8
1
 62
7
  6
CONTINUOUS
 10
314.468159
 20
363.782254
 11
310.668159
 21
363.782254
  0
LINE
  8
1
 62
7
  6
CONTINUOUS
 10
309.068160
 20
365.282254
 11
314.468159
 21
365.282254
  0
LINE
  8
1
 62
7
  6
CONTINUOUS
 10
309.068160
 20
363.282254
 11
314.468159
 21
363.282254
  0
LINE
  8
1
 62
7
  6
CONTINUOUS
 10
314.468159
 20
364.782254
 11
310.668159
 21
364.782254
  0
LINE
  8
1
 62
7
  6
CONTINUOUS
 10
309.068160
 20
365.282254
 11
309.068160
 21
363.282254
  0
LINE
  8
1
 62
7
  6
CONTINUOUS
 10
314.468159
 20
374.862254
 11
310.668159
 21
374.862254
  0
LINE
  8
1
 62
7
  6
CONTINUOUS
 10
339.868159
 20
370.282254
 11
339.868159
 21
368.282254
  0
LINE
  8
1
 62
7
  6
CONTINUOUS
 10
339.868159
 20
368.282254
 11
334.468159
 21
368.282254
  0
LINE
  8
1
 62
7
  6
CONTINUOUS
 10
339.868159
 20
370.282254
 11
334.468159
 21
370.282254
  0
LINE
  8
1
 62
7
  6
CONTINUOUS
 10
334.468159
 20
368.782254
 11
338.268159
 21
368.782254
  0
LINE
  8
1
 62
7
  6
CONTINUOUS
 10
314.468159
 20
373.862254
 11
310.668159
 21
373.862254
  0
LINE
  8
1
 62
7
  6
CONTINUOUS
 10
310.668159
 20
368.782254
 11
310.668159
 21
369.782254
  0
LINE
  8
1
 62
7
  6
CONTINUOUS
 10
314.468159
 20
369.782254
 11
310.668159
 21
369.782254
  0
LINE
  8
1
 62
7
  6
CONTINUOUS
 10
310.668159
 20
378.942254
 11
310.668159
 21
379.942254
  0
LINE
  8
1
 62
7
  6
CONTINUOUS
 10
334.468159
 20
369.782254
 11
338.268159
 21
369.782254
  0
LINE
  8
1
 62
7
  6
CONTINUOUS
 10
338.268159
 20
368.782254
 11
338.268159
 21
369.782254
  0
TEXT
  8
1
 62
7
  6
CONTINUOUS
 10
318.768165
 20
348.647816
 40
3.400000
 41
0.833333
  1
0
  7
KANJI
 50
90.000003
 51
0.000000
  0
TEXT
  8
1
 62
7
  6
CONTINUOUS
 10
323.861759
 20
344.065957
 40
3.400000
 41
1.000000
  1
8
  7
KANJI
 50
161.999998
 51
0.000000
  0
TEXT
  8
1
 62
7
  6
CONTINUOUS
 10
320.570592
 20
345.529378
 40
3.400000
 41
1.000000
  1
9
  7
KANJI
 50
125.999997
 51
0.000000
  0
TEXT
  8
1
 62
7
  6
CONTINUOUS
 10
327.384557
 20
344.816520
 40
3.400000
 41
1.000000
  1
7
  7
KANJI
 50
198.000002
 51
0.000000
  0
TEXT
  8
1
 62
7
  6
CONTINUOUS
 10
329.793384
 20
347.494380
 40
3.400000
 41
1.000000
  1
6
  7
KANJI
 50
234.000003
 51
0.000000
  0
TEXT
  8
1
 62
7
  6
CONTINUOUS
 10
330.168199
 20
351.076691
 40
3.400000
 41
1.000000
  1
5
  7
KANJI
 50
269.999997
 51
0.000000
  0
TEXT
  8
1
 62
7
  6
CONTINUOUS
 10
328.365727
 20
354.195144
 40
3.400000
 41
1.000000
  1
4
  7
KANJI
 50
305.999998
 51
0.000000
  0
TEXT
  8
1
 62
7
  6
CONTINUOUS
 10
325.074559
 20
355.658566
 40
3.400000
 41
1.000000
  1
3
  7
KANJI
 50
341.999999
 51
0.000000
  0
TEXT
  8
1
 62
7
  6
CONTINUOUS
 10
321.551761
 20
354.908002
 40
3.400000
 41
1.000000
  1
2
  7
KANJI
 50
18.000001
 51
0.000000
  0
TEXT
  8
1
 62
7
  6
CONTINUOUS
 10
319.142935
 20
352.230143
 40
3.400000
 41
0.666667
  1
1
  7
KANJI
 50
54.000002
 51
0.000000
  0
CIRCLE
  8
1
 62
7
  6
CONTINUOUS
 10
324.468159
 20
349.862254
 40
4.000000
  0
LINE
  8
1
 62
7
  6
CONTINUOUS
 10
334.468159
 20
339.862254
 11
334.468159
 21
359.862254
  0
LINE
  8
1
 62
7
  6
CONTINUOUS
 10
314.468159
 20
339.862254
 11
314.468159
 21
359.862254
  0
LINE
  8
1
 62
7
  6
CONTINUOUS
 10
320.868167
 20
349.862265
 11
322.868157
 21
348.462272
  0
LINE
  8
1
 62
7
  6
CONTINUOUS
 10
322.868168
 20
350.662272
 11
328.068150
 21
350.662272
  0
LINE
  8
1
 62
7
  6
CONTINUOUS
 10
322.868168
 20
348.462260
 11
322.868168
 21
349.062266
  0
LINE
  8
1
 62
7
  6
CONTINUOUS
 10
314.468199
 20
356.862238
 11
317.468200
 21
359.862239
  0
LINE
  8
1
 62
7
  6
CONTINUOUS
 10
314.468159
 20
339.862254
 11
334.468159
 21
339.862254
  0
LINE
  8
1
 62
7
  6
CONTINUOUS
 10
314.468159
 20
359.862254
 11
334.468159
 21
359.862254
  0
LINE
  8
1
 62
7
  6
CONTINUOUS
 10
320.868174
 20
349.862276
 11
322.868167
 21
351.262271
  0
LINE
  8
1
 62
7
  6
CONTINUOUS
 10
322.868168
 20
350.662272
 11
322.868168
 21
351.262278
  0
LINE
  8
1
 62
7
  6
CONTINUOUS
 10
328.068150
 20
349.062266
 11
328.068150
 21
350.662272
  0
LINE
  8
1
 62
7
  6
CONTINUOUS
 10
322.868168
 20
349.062266
 11
328.068150
 21
349.062266
  0
LINE
  8
1
 62
7
  6
CONTINUOUS
 10
314.468159
 20
356.942254
 11
310.668159
 21
356.942254
  0
LINE
  8
1
 62
7
  6
CONTINUOUS
 10
309.068160
 20
348.282254
 11
314.468159
 21
348.282254
  0
LINE
  8
1
 62
7
  6
CONTINUOUS
 10
314.468159
 20
357.942254
 11
310.668159
 21
357.942254
  0
LINE
  8
1
 62
7
  6
CONTINUOUS
 10
309.068160
 20
351.362254
 11
314.468159
 21
351.362254
  0
LINE
  8
1
 62
7
  6
CONTINUOUS
 10
309.068160
 20
353.362254
 11
309.068160
 21
351.362254
  0
LINE
  8
1
 62
7
  6
CONTINUOUS
 10
309.068160
 20
358.442254
 11
309.068160
 21
356.442254
  0
LINE
  8
1
 62
7
  6
CONTINUOUS
 10
309.068160
 20
346.282254
 11
314.468159
 21
346.282254
  0
LINE
  8
1
 62
7
  6
CONTINUOUS
 10
309.068160
 20
356.442254
 11
314.468159
 21
356.442254
  0
LINE
  8
1
 62
7
  6
CONTINUOUS
 10
314.468159
 20
346.782254
 11
310.668159
 21
346.782254
  0
LINE
  8
1
 62
7
  6
CONTINUOUS
 10
310.668159
 20
351.862254
 11
310.668159
 21
352.862254
  0
LINE
  8
1
 62
7
  6
CONTINUOUS
 10
309.068160
 20
348.282254
 11
309.068160
 21
346.282254
  0
LINE
  8
1
 62
7
  6
CONTINUOUS
 10
309.068160
 20
358.442254
 11
314.468159
 21
358.442254
  0
LINE
  8
1
 62
7
  6
CONTINUOUS
 10
309.068160
 20
353.362254
 11
314.468159
 21
353.362254
  0
LINE
  8
1
 62
7
  6
CONTINUOUS
 10
310.668159
 20
341.782254
 11
310.668159
 21
342.782254
  0
LINE
  8
1
 62
7
  6
CONTINUOUS
 10
314.468159
 20
341.782254
 11
310.668159
 21
341.782254
  0
LINE
  8
1
 62
7
  6
CONTINUOUS
 10
309.068160
 20
343.282254
 11
314.468159
 21
343.282254
  0
LINE
  8
1
 62
7
  6
CONTINUOUS
 10
309.068160
 20
341.282254
 11
314.468159
 21
341.282254
  0
LINE
  8
1
 62
7
  6
CONTINUOUS
 10
314.468159
 20
342.782254
 11
310.668159
 21
342.782254
  0
LINE
  8
1
 62
7
  6
CONTINUOUS
 10
309.068160
 20
343.282254
 11
309.068160
 21
341.282254
  0
LINE
  8
1
 62
7
  6
CONTINUOUS
 10
314.468159
 20
352.862254
 11
310.668159
 21
352.862254
  0
LINE
  8
1
 62
7
  6
CONTINUOUS
 10
339.868159
 20
348.282254
 11
339.868159
 21
346.282254
  0
LINE
  8
1
 62
7
  6
CONTINUOUS
 10
339.868159
 20
346.282254
 11
334.468159
 21
346.282254
  0
LINE
  8
1
 62
7
  6
CONTINUOUS
 10
339.868159
 20
348.282254
 11
334.468159
 21
348.282254
  0
LINE
  8
1
 62
7
  6
CONTINUOUS
 10
334.468159
 20
346.782254
 11
338.268159
 21
346.782254
  0
LINE
  8
1
 62
7
  6
CONTINUOUS
 10
314.468159
 20
351.862254
 11
310.668159
 21
351.862254
  0
LINE
  8
1
 62
7
  6
CONTINUOUS
 10
310.668159
 20
346.782254
 11
310.668159
 21
347.782254
  0
LINE
  8
1
 62
7
  6
CONTINUOUS
 10
314.468159
 20
347.782254
 11
310.668159
 21
347.782254
  0
LINE
  8
1
 62
7
  6
CONTINUOUS
 10
310.668159
 20
356.942254
 11
310.668159
 21
357.942254
  0
LINE
  8
1
 62
7
  6
CONTINUOUS
 10
334.468159
 20
347.782254
 11
338.268159
 21
347.782254
  0
LINE
  8
1
 62
7
  6
CONTINUOUS
 10
338.268159
 20
346.782254
 11
338.268159
 21
347.782254
  0
TEXT
  8
1
 62
7
  6
CONTINUOUS
 10
318.768165
 20
326.647816
 40
3.400000
 41
0.833333
  1
0
  7
KANJI
 50
90.000003
 51
0.000000
  0
TEXT
  8
1
 62
7
  6
CONTINUOUS
 10
323.861759
 20
322.065957
 40
3.400000
 41
1.000000
  1
8
  7
KANJI
 50
161.999998
 51
0.000000
  0
TEXT
  8
1
 62
7
  6
CONTINUOUS
 10
320.570592
 20
323.529378
 40
3.400000
 41
1.000000
  1
9
  7
KANJI
 50
125.999997
 51
0.000000
  0
TEXT
  8
1
 62
7
  6
CONTINUOUS
 10
327.384557
 20
322.816520
 40
3.400000
 41
1.000000
  1
7
  7
KANJI
 50
198.000002
 51
0.000000
  0
TEXT
  8
1
 62
7
  6
CONTINUOUS
 10
329.793384
 20
325.494380
 40
3.400000
 41
1.000000
  1
6
  7
KANJI
 50
234.000003
 51
0.000000
  0
TEXT
  8
1
 62
7
  6
CONTINUOUS
 10
330.168199
 20
329.076691
 40
3.400000
 41
1.000000
  1
5
  7
KANJI
 50
269.999997
 51
0.000000
  0
TEXT
  8
1
 62
7
  6
CONTINUOUS
 10
328.365727
 20
332.195144
 40
3.400000
 41
1.000000
  1
4
  7
KANJI
 50
305.999998
 51
0.000000
  0
TEXT
  8
1
 62
7
  6
CONTINUOUS
 10
325.074559
 20
333.658566
 40
3.400000
 41
1.000000
  1
3
  7
KANJI
 50
341.999999
 51
0.000000
  0
TEXT
  8
1
 62
7
  6
CONTINUOUS
 10
321.551761
 20
332.908002
 40
3.400000
 41
1.000000
  1
2
  7
KANJI
 50
18.000001
 51
0.000000
  0
TEXT
  8
1
 62
7
  6
CONTINUOUS
 10
319.142935
 20
330.230143
 40
3.400000
 41
0.666667
  1
1
  7
KANJI
 50
54.000002
 51
0.000000
  0
CIRCLE
  8
1
 62
7
  6
CONTINUOUS
 10
324.468159
 20
327.862254
 40
4.000000
  0
LINE
  8
1
 62
7
  6
CONTINUOUS
 10
334.468159
 20
317.862254
 11
334.468159
 21
337.862254
  0
LINE
  8
1
 62
7
  6
CONTINUOUS
 10
314.468159
 20
317.862254
 11
314.468159
 21
337.862254
  0
LINE
  8
1
 62
7
  6
CONTINUOUS
 10
320.868167
 20
327.862265
 11
322.868157
 21
326.462272
  0
LINE
  8
1
 62
7
  6
CONTINUOUS
 10
322.868168
 20
328.662272
 11
328.068150
 21
328.662272
  0
LINE
  8
1
 62
7
  6
CONTINUOUS
 10
322.868168
 20
326.462260
 11
322.868168
 21
327.062266
  0
LINE
  8
1
 62
7
  6
CONTINUOUS
 10
314.468199
 20
334.862238
 11
317.468200
 21
337.862239
  0
LINE
  8
1
 62
7
  6
CONTINUOUS
 10
314.468159
 20
317.862254
 11
334.468159
 21
317.862254
  0
LINE
  8
1
 62
7
  6
CONTINUOUS
 10
314.468159
 20
337.862254
 11
334.468159
 21
337.862254
  0
LINE
  8
1
 62
7
  6
CONTINUOUS
 10
320.868174
 20
327.862276
 11
322.868167
 21
329.262271
  0
LINE
  8
1
 62
7
  6
CONTINUOUS
 10
322.868168
 20
328.662272
 11
322.868168
 21
329.262278
  0
LINE
  8
1
 62
7
  6
CONTINUOUS
 10
328.068150
 20
327.062266
 11
328.068150
 21
328.662272
  0
LINE
  8
1
 62
7
  6
CONTINUOUS
 10
322.868168
 20
327.062266
 11
328.068150
 21
327.062266
  0
LINE
  8
1
 62
7
  6
CONTINUOUS
 10
314.468159
 20
334.942254
 11
310.668159
 21
334.942254
  0
LINE
  8
1
 62
7
  6
CONTINUOUS
 10
309.068160
 20
326.282254
 11
314.468159
 21
326.282254
  0
LINE
  8
1
 62
7
  6
CONTINUOUS
 10
314.468159
 20
335.942254
 11
310.668159
 21
335.942254
  0
LINE
  8
1
 62
7
  6
CONTINUOUS
 10
309.068160
 20
329.362254
 11
314.468159
 21
329.362254
  0
LINE
  8
1
 62
7
  6
CONTINUOUS
 10
309.068160
 20
331.362254
 11
309.068160
 21
329.362254
  0
LINE
  8
1
 62
7
  6
CONTINUOUS
 10
309.068160
 20
336.442254
 11
309.068160
 21
334.442254
  0
LINE
  8
1
 62
7
  6
CONTINUOUS
 10
309.068160
 20
324.282254
 11
314.468159
 21
324.282254
  0
LINE
  8
1
 62
7
  6
CONTINUOUS
 10
309.068160
 20
334.442254
 11
314.468159
 21
334.442254
  0
LINE
  8
1
 62
7
  6
CONTINUOUS
 10
314.468159
 20
324.782254
 11
310.668159
 21
324.782254
  0
LINE
  8
1
 62
7
  6
CONTINUOUS
 10
310.668159
 20
329.862254
 11
310.668159
 21
330.862254
  0
LINE
  8
1
 62
7
  6
CONTINUOUS
 10
309.068160
 20
326.282254
 11
309.068160
 21
324.282254
  0
LINE
  8
1
 62
7
  6
CONTINUOUS
 10
309.068160
 20
336.442254
 11
314.468159
 21
336.442254
  0
LINE
  8
1
 62
7
  6
CONTINUOUS
 10
309.068160
 20
331.362254
 11
314.468159
 21
331.362254
  0
LINE
  8
1
 62
7
  6
CONTINUOUS
 10
310.668159
 20
319.782254
 11
310.668159
 21
320.782254
  0
LINE
  8
1
 62
7
  6
CONTINUOUS
 10
314.468159
 20
319.782254
 11
310.668159
 21
319.782254
  0
LINE
  8
1
 62
7
  6
CONTINUOUS
 10
309.068160
 20
321.282254
 11
314.468159
 21
321.282254
  0
LINE
  8
1
 62
7
  6
CONTINUOUS
 10
309.068160
 20
319.282254
 11
314.468159
 21
319.282254
  0
LINE
  8
1
 62
7
  6
CONTINUOUS
 10
314.468159
 20
320.782254
 11
310.668159
 21
320.782254
  0
LINE
  8
1
 62
7
  6
CONTINUOUS
 10
309.068160
 20
321.282254
 11
309.068160
 21
319.282254
  0
LINE
  8
1
 62
7
  6
CONTINUOUS
 10
314.468159
 20
330.862254
 11
310.668159
 21
330.862254
  0
LINE
  8
1
 62
7
  6
CONTINUOUS
 10
339.868159
 20
326.282254
 11
339.868159
 21
324.282254
  0
LINE
  8
1
 62
7
  6
CONTINUOUS
 10
339.868159
 20
324.282254
 11
334.468159
 21
324.282254
  0
LINE
  8
1
 62
7
  6
CONTINUOUS
 10
339.868159
 20
326.282254
 11
334.468159
 21
326.282254
  0
LINE
  8
1
 62
7
  6
CONTINUOUS
 10
334.468159
 20
324.782254
 11
338.268159
 21
324.782254
  0
LINE
  8
1
 62
7
  6
CONTINUOUS
 10
314.468159
 20
329.862254
 11
310.668159
 21
329.862254
  0
LINE
  8
1
 62
7
  6
CONTINUOUS
 10
310.668159
 20
324.782254
 11
310.668159
 21
325.782254
  0
LINE
  8
1
 62
7
  6
CONTINUOUS
 10
314.468159
 20
325.782254
 11
310.668159
 21
325.782254
  0
LINE
  8
1
 62
7
  6
CONTINUOUS
 10
310.668159
 20
334.942254
 11
310.668159
 21
335.942254
  0
LINE
  8
1
 62
7
  6
CONTINUOUS
 10
334.468159
 20
325.782254
 11
338.268159
 21
325.782254
  0
LINE
  8
1
 62
7
  6
CONTINUOUS
 10
338.268159
 20
324.782254
 11
338.268159
 21
325.782254
  0
TEXT
  8
1
 62
7
  6
CONTINUOUS
 10
318.768165
 20
304.647816
 40
3.400000
 41
0.833333
  1
0
  7
KANJI
 50
90.000003
 51
0.000000
  0
TEXT
  8
1
 62
7
  6
CONTINUOUS
 10
323.861759
 20
300.065957
 40
3.400000
 41
1.000000
  1
8
  7
KANJI
 50
161.999998
 51
0.000000
  0
TEXT
  8
1
 62
7
  6
CONTINUOUS
 10
320.570592
 20
301.529378
 40
3.400000
 41
1.000000
  1
9
  7
KANJI
 50
125.999997
 51
0.000000
  0
TEXT
  8
1
 62
7
  6
CONTINUOUS
 10
327.384557
 20
300.816520
 40
3.400000
 41
1.000000
  1
7
  7
KANJI
 50
198.000002
 51
0.000000
  0
TEXT
  8
1
 62
7
  6
CONTINUOUS
 10
329.793384
 20
303.494380
 40
3.400000
 41
1.000000
  1
6
  7
KANJI
 50
234.000003
 51
0.000000
  0
TEXT
  8
1
 62
7
  6
CONTINUOUS
 10
330.168199
 20
307.076691
 40
3.400000
 41
1.000000
  1
5
  7
KANJI
 50
269.999997
 51
0.000000
  0
TEXT
  8
1
 62
7
  6
CONTINUOUS
 10
328.365727
 20
310.195144
 40
3.400000
 41
1.000000
  1
4
  7
KANJI
 50
305.999998
 51
0.000000
  0
TEXT
  8
1
 62
7
  6
CONTINUOUS
 10
325.074559
 20
311.658566
 40
3.400000
 41
1.000000
  1
3
  7
KANJI
 50
341.999999
 51
0.000000
  0
TEXT
  8
1
 62
7
  6
CONTINUOUS
 10
321.551761
 20
310.908002
 40
3.400000
 41
1.000000
  1
2
  7
KANJI
 50
18.000001
 51
0.000000
  0
TEXT
  8
1
 62
7
  6
CONTINUOUS
 10
319.142935
 20
308.230143
 40
3.400000
 41
0.666667
  1
1
  7
KANJI
 50
54.000002
 51
0.000000
  0
CIRCLE
  8
1
 62
7
  6
CONTINUOUS
 10
324.468159
 20
305.862254
 40
4.000000
  0
LINE
  8
1
 62
7
  6
CONTINUOUS
 10
334.468159
 20
295.862254
 11
334.468159
 21
315.862254
  0
LINE
  8
1
 62
7
  6
CONTINUOUS
 10
314.468159
 20
295.862254
 11
314.468159
 21
315.862254
  0
LINE
  8
1
 62
7
  6
CONTINUOUS
 10
320.868167
 20
305.862265
 11
322.868157
 21
304.462272
  0
LINE
  8
1
 62
7
  6
CONTINUOUS
 10
322.868168
 20
306.662272
 11
328.068150
 21
306.662272
  0
LINE
  8
1
 62
7
  6
CONTINUOUS
 10
322.868168
 20
304.462260
 11
322.868168
 21
305.062266
  0
LINE
  8
1
 62
7
  6
CONTINUOUS
 10
314.468199
 20
312.862238
 11
317.468200
 21
315.862239
  0
LINE
  8
1
 62
7
  6
CONTINUOUS
 10
314.468159
 20
295.862254
 11
334.468159
 21
295.862254
  0
LINE
  8
1
 62
7
  6
CONTINUOUS
 10
314.468159
 20
315.862254
 11
334.468159
 21
315.862254
  0
LINE
  8
1
 62
7
  6
CONTINUOUS
 10
320.868174
 20
305.862276
 11
322.868167
 21
307.262271
  0
LINE
  8
1
 62
7
  6
CONTINUOUS
 10
322.868168
 20
306.662272
 11
322.868168
 21
307.262278
  0
LINE
  8
1
 62
7
  6
CONTINUOUS
 10
328.068150
 20
305.062266
 11
328.068150
 21
306.662272
  0
LINE
  8
1
 62
7
  6
CONTINUOUS
 10
322.868168
 20
305.062266
 11
328.068150
 21
305.062266
  0
LINE
  8
1
 62
7
  6
CONTINUOUS
 10
314.468159
 20
312.942254
 11
310.668159
 21
312.942254
  0
LINE
  8
1
 62
7
  6
CONTINUOUS
 10
309.068160
 20
304.282254
 11
314.468159
 21
304.282254
  0
LINE
  8
1
 62
7
  6
CONTINUOUS
 10
314.468159
 20
313.942254
 11
310.668159
 21
313.942254
  0
LINE
  8
1
 62
7
  6
CONTINUOUS
 10
309.068160
 20
307.362254
 11
314.468159
 21
307.362254
  0
LINE
  8
1
 62
7
  6
CONTINUOUS
 10
309.068160
 20
309.362254
 11
309.068160
 21
307.362254
  0
LINE
  8
1
 62
7
  6
CONTINUOUS
 10
309.068160
 20
314.442254
 11
309.068160
 21
312.442254
  0
LINE
  8
1
 62
7
  6
CONTINUOUS
 10
309.068160
 20
302.282254
 11
314.468159
 21
302.282254
  0
LINE
  8
1
 62
7
  6
CONTINUOUS
 10
309.068160
 20
312.442254
 11
314.468159
 21
312.442254
  0
LINE
  8
1
 62
7
  6
CONTINUOUS
 10
314.468159
 20
302.782254
 11
310.668159
 21
302.782254
  0
LINE
  8
1
 62
7
  6
CONTINUOUS
 10
310.668159
 20
307.862254
 11
310.668159
 21
308.862254
  0
LINE
  8
1
 62
7
  6
CONTINUOUS
 10
309.068160
 20
304.282254
 11
309.068160
 21
302.282254
  0
LINE
  8
1
 62
7
  6
CONTINUOUS
 10
309.068160
 20
314.442254
 11
314.468159
 21
314.442254
  0
LINE
  8
1
 62
7
  6
CONTINUOUS
 10
309.068160
 20
309.362254
 11
314.468159
 21
309.362254
  0
LINE
  8
1
 62
7
  6
CONTINUOUS
 10
310.668159
 20
297.782254
 11
310.668159
 21
298.782254
  0
LINE
  8
1
 62
7
  6
CONTINUOUS
 10
314.468159
 20
297.782254
 11
310.668159
 21
297.782254
  0
LINE
  8
1
 62
7
  6
CONTINUOUS
 10
309.068160
 20
299.282254
 11
314.468159
 21
299.282254
  0
LINE
  8
1
 62
7
  6
CONTINUOUS
 10
309.068160
 20
297.282254
 11
314.468159
 21
297.282254
  0
LINE
  8
1
 62
7
  6
CONTINUOUS
 10
314.468159
 20
298.782254
 11
310.668159
 21
298.782254
  0
LINE
  8
1
 62
7
  6
CONTINUOUS
 10
309.068160
 20
299.282254
 11
309.068160
 21
297.282254
  0
LINE
  8
1
 62
7
  6
CONTINUOUS
 10
314.468159
 20
308.862254
 11
310.668159
 21
308.862254
  0
LINE
  8
1
 62
7
  6
CONTINUOUS
 10
339.868159
 20
304.282254
 11
339.868159
 21
302.282254
  0
LINE
  8
1
 62
7
  6
CONTINUOUS
 10
339.868159
 20
302.282254
 11
334.468159
 21
302.282254
  0
LINE
  8
1
 62
7
  6
CONTINUOUS
 10
339.868159
 20
304.282254
 11
334.468159
 21
304.282254
  0
LINE
  8
1
 62
7
  6
CONTINUOUS
 10
334.468159
 20
302.782254
 11
338.268159
 21
302.782254
  0
LINE
  8
1
 62
7
  6
CONTINUOUS
 10
314.468159
 20
307.862254
 11
310.668159
 21
307.862254
  0
LINE
  8
1
 62
7
  6
CONTINUOUS
 10
310.668159
 20
302.782254
 11
310.668159
 21
303.782254
  0
LINE
  8
1
 62
7
  6
CONTINUOUS
 10
314.468159
 20
303.782254
 11
310.668159
 21
303.782254
  0
LINE
  8
1
 62
7
  6
CONTINUOUS
 10
310.668159
 20
312.942254
 11
310.668159
 21
313.942254
  0
LINE
  8
1
 62
7
  6
CONTINUOUS
 10
334.468159
 20
303.782254
 11
338.268159
 21
303.782254
  0
LINE
  8
1
 62
7
  6
CONTINUOUS
 10
338.268159
 20
302.782254
 11
338.268159
 21
303.782254
  0
LINE
  8
1
 62
7
  6
CONTINUOUS
 10
366.268159
 20
332.112254
 11
366.268159
 21
329.612254
  0
LINE
  8
1
 62
7
  6
CONTINUOUS
 10
368.668159
 20
332.112254
 11
368.668159
 21
329.612254
  0
LINE
  8
1
 62
7
  6
CONTINUOUS
 10
369.468159
 20
332.112254
 11
369.468159
 21
329.612254
  0
LINE
  8
1
 62
7
  6
CONTINUOUS
 10
365.468159
 20
332.112254
 11
365.468159
 21
329.612254
  0
LINE
  8
1
 62
7
  6
CONTINUOUS
 10
365.468159
 20
332.112254
 11
369.468159
 21
332.112254
  0
LINE
  8
1
 62
7
  6
CONTINUOUS
 10
365.468159
 20
329.612254
 11
369.468159
 21
329.612254
  0
LINE
  8
1
 62
7
  6
CONTINUOUS
 10
366.268159
 20
348.112254
 11
366.268159
 21
345.612254
  0
LINE
  8
1
 62
7
  6
CONTINUOUS
 10
368.668159
 20
348.112254
 11
368.668159
 21
345.612254
  0
LINE
  8
1
 62
7
  6
CONTINUOUS
 10
369.468159
 20
348.112254
 11
369.468159
 21
345.612254
  0
LINE
  8
1
 62
7
  6
CONTINUOUS
 10
365.468159
 20
348.112254
 11
365.468159
 21
345.612254
  0
LINE
  8
1
 62
7
  6
CONTINUOUS
 10
365.468159
 20
348.112254
 11
369.468159
 21
348.112254
  0
LINE
  8
1
 62
7
  6
CONTINUOUS
 10
365.468159
 20
345.612254
 11
369.468159
 21
345.612254
  0
LINE
  8
1
 62
7
  6
CONTINUOUS
 10
366.268159
 20
364.112254
 11
366.268159
 21
361.612254
  0
LINE
  8
1
 62
7
  6
CONTINUOUS
 10
368.668159
 20
364.112254
 11
368.668159
 21
361.612254
  0
LINE
  8
1
 62
7
  6
CONTINUOUS
 10
369.468159
 20
364.112254
 11
369.468159
 21
361.612254
  0
LINE
  8
1
 62
7
  6
CONTINUOUS
 10
365.468159
 20
364.112254
 11
365.468159
 21
361.612254
  0
LINE
  8
1
 62
7
  6
CONTINUOUS
 10
365.468159
 20
364.112254
 11
369.468159
 21
364.112254
  0
LINE
  8
1
 62
7
  6
CONTINUOUS
 10
365.468159
 20
361.612254
 11
369.468159
 21
361.612254
  0
ARC
  8
1
 62
7
  6
CONTINUOUS
 10
236.468045
 20
337.061793
 40
2.000010
 50
0.000082
 51
89.999973
  0
ARC
  8
1
 62
7
  6
CONTINUOUS
 10
236.468045
 20
312.661921
 40
2.000010
 50
-89.999918
 51
0.000082
  0
ARC
  8
1
 62
7
  6
CONTINUOUS
 10
212.468030
 20
312.661921
 40
2.000010
 50
179.999918
 51
-90.000082
  0
ARC
  8
1
 62
7
  6
CONTINUOUS
 10
212.468030
 20
337.061823
 40
2.000010
 50
89.999973
 51
179.999918
  0
ARC
  8
1
 62
7
  6
CONTINUOUS
 10
231.468045
 20
338.061884
 40
1.000007
 50
0.000055
 51
89.999973
  0
ARC
  8
1
 62
7
  6
CONTINUOUS
 10
217.468030
 20
338.061884
 40
1.000007
 50
89.999973
 51
179.999945
  0
ARC
  8
1
 62
7
  6
CONTINUOUS
 10
231.468014
 20
311.661921
 40
1.000007
 50
-89.999918
 51
0.000055
  0
ARC
  8
1
 62
7
  6
CONTINUOUS
 10
217.467968
 20
311.661921
 40
1.000007
 50
179.999945
 51
-90.000082
  0
ARC
  8
1
 62
7
  6
CONTINUOUS
 10
211.468030
 20
322.861933
 40
1.000007
 50
179.999918
 51
-90.000055
  0
ARC
  8
1
 62
7
  6
CONTINUOUS
 10
211.468030
 20
326.861872
 40
1.000007
 50
89.999945
 51
179.999925
  0
ARC
  8
1
 62
7
  6
CONTINUOUS
 10
230.468045
 20
324.861872
 40
10.000070
 50
36.869567
 51
78.463013
  0
ARC
  8
1
 62
7
  6
CONTINUOUS
 10
218.467968
 20
324.861872
 40
10.000070
 50
-143.129891
 51
-101.536883
  0
ARC
  8
1
 62
7
  6
CONTINUOUS
 10
230.468045
 20
324.861872
 40
10.000070
 50
-78.462952
 51
-36.869564
  0
ARC
  8
1
 62
7
  6
CONTINUOUS
 10
218.467968
 20
324.861872
 40
10.000070
 50
101.536822
 51
143.129837
  0
LINE
  8
1
 62
7
  6
CONTINUOUS
 10
216.468213
 20
321.862360
 11
211.468213
 21
321.862360
  0
LINE
  8
1
 62
7
  6
CONTINUOUS
 10
210.468213
 20
326.862269
 11
210.468213
 21
322.862330
  0
LINE
  8
1
 62
7
  6
CONTINUOUS
 10
231.468075
 20
339.062129
 11
217.468213
 21
339.062129
  0
LINE
  8
1
 62
7
  6
CONTINUOUS
 10
216.468213
 20
327.862238
 11
211.468213
 21
327.862238
  0
LINE
  8
1
 62
7
  6
CONTINUOUS
 10
238.468136
 20
337.062129
 11
238.468136
 21
312.662409
  0
LINE
  8
1
 62
7
  6
CONTINUOUS
 10
216.468213
 20
338.062129
 11
216.468213
 21
327.862238
  0
LINE
  8
1
 62
7
  6
CONTINUOUS
 10
232.468106
 20
338.062129
 11
232.468106
 21
311.662409
  0
LINE
  8
1
 62
7
  6
CONTINUOUS
 10
216.468213
 20
321.862360
 11
216.468213
 21
311.662409
  0
LINE
  8
1
 62
7
  6
CONTINUOUS
 10
236.468136
 20
339.062129
 11
212.468213
 21
339.062129
  0
LINE
  8
1
 62
7
  6
CONTINUOUS
 10
236.468136
 20
310.662379
 11
212.468213
 21
310.662379
  0
LINE
  8
1
 62
7
  6
CONTINUOUS
 10
210.468213
 20
337.062129
 11
210.468213
 21
312.662409
  0
ARC
  8
1
 62
7
  6
CONTINUOUS
 10
243.849327
 20
355.903524
 40
3.600000
 50
-90.347282
 51
-90.000003
  0
LINE
  8
1
 62
7
  6
CONTINUOUS
 10
248.348159
 20
337.462254
 11
248.348159
 21
339.462254
  0
LINE
  8
1
 62
7
  6
CONTINUOUS
 10
249.348159
 20
337.462254
 11
249.348159
 21
339.462254
  0
LINE
  8
1
 62
7
  6
CONTINUOUS
 10
249.348159
 20
337.462254
 11
248.348159
 21
337.462254
  0
LINE
  8
1
 62
7
  6
CONTINUOUS
 10
269.668159
 20
337.462253
 11
268.668159
 21
337.462254
  0
LINE
  8
1
 62
7
  6
CONTINUOUS
 10
259.508159
 20
337.462254
 11
258.508159
 21
337.462254
  0
LINE
  8
1
 62
7
  6
CONTINUOUS
 10
259.508159
 20
337.462254
 11
259.508159
 21
339.462253
  0
LINE
  8
1
 62
7
  6
CONTINUOUS
 10
258.508159
 20
337.462254
 11
258.508159
 21
339.462253
  0
LINE
  8
1
 62
7
  6
CONTINUOUS
 10
268.668159
 20
337.462254
 11
268.668159
 21
339.462253
  0
LINE
  8
1
 62
7
  6
CONTINUOUS
 10
253.428159
 20
337.462254
 11
253.428159
 21
339.462254
  0
LINE
  8
1
 62
7
  6
CONTINUOUS
 10
254.428159
 20
337.462254
 11
254.428159
 21
339.462254
  0
LINE
  8
1
 62
7
  6
CONTINUOUS
 10
269.668159
 20
337.462253
 11
269.668159
 21
339.462253
  0
LINE
  8
1
 62
7
  6
CONTINUOUS
 10
254.428159
 20
337.462254
 11
253.428159
 21
337.462254
  0
LINE
  8
1
 62
7
  6
CONTINUOUS
 10
248.348160
 20
356.262254
 11
248.348160
 21
354.262254
  0
LINE
  8
1
 62
7
  6
CONTINUOUS
 10
249.348160
 20
356.262254
 11
249.348160
 21
354.262254
  0
LINE
  8
1
 62
7
  6
CONTINUOUS
 10
249.348160
 20
356.262254
 11
248.348160
 21
356.262254
  0
LINE
  8
1
 62
7
  6
CONTINUOUS
 10
269.668159
 20
356.262253
 11
268.668159
 21
356.262253
  0
LINE
  8
1
 62
7
  6
CONTINUOUS
 10
259.508160
 20
356.262253
 11
258.508160
 21
356.262253
  0
LINE
  8
1
 62
7
  6
CONTINUOUS
 10
259.508160
 20
356.262253
 11
259.508159
 21
354.262254
  0
LINE
  8
1
 62
7
  6
CONTINUOUS
 10
258.508160
 20
356.262253
 11
258.508159
 21
354.262254
  0
LINE
  8
1
 62
7
  6
CONTINUOUS
 10
268.668159
 20
356.262253
 11
268.668159
 21
354.262253
  0
LINE
  8
1
 62
7
  6
CONTINUOUS
 10
253.428160
 20
356.262253
 11
253.428160
 21
354.262254
  0
LINE
  8
1
 62
7
  6
CONTINUOUS
 10
254.428160
 20
356.262253
 11
254.428160
 21
354.262254
  0
LINE
  8
1
 62
7
  6
CONTINUOUS
 10
269.668159
 20
356.262253
 11
269.668159
 21
354.262253
  0
LINE
  8
1
 62
7
  6
CONTINUOUS
 10
254.428160
 20
356.262253
 11
253.428160
 21
356.262253
  0
LINE
  8
1
 62
7
  6
CONTINUOUS
 10
271.468159
 20
339.462253
 11
241.468159
 21
339.462254
  0
LINE
  8
1
 62
7
  6
CONTINUOUS
 10
241.468160
 20
354.262254
 11
241.468159
 21
339.462254
  0
LINE
  8
1
 62
7
  6
CONTINUOUS
 10
271.468160
 20
354.262253
 11
241.468160
 21
354.262254
  0
LINE
  8
1
 62
7
  6
CONTINUOUS
 10
271.468160
 20
354.262253
 11
271.468159
 21
339.462253
  0
LINE
  8
1
 62
7
  6
CONTINUOUS
 10
348.468159
 20
345.062253
 11
347.468159
 21
345.062253
  0
LINE
  8
1
 62
7
  6
CONTINUOUS
 10
357.468159
 20
345.062253
 11
356.468159
 21
345.062253
  0
LINE
  8
1
 62
7
  6
CONTINUOUS
 10
356.068159
 20
343.062253
 11
356.068159
 21
344.062253
  0
LINE
  8
1
 62
7
  6
CONTINUOUS
 10
356.468159
 20
344.062253
 11
356.068159
 21
344.062253
  0
LINE
  8
1
 62
7
  6
CONTINUOUS
 10
348.868159
 20
344.062253
 11
348.468159
 21
344.062253
  0
LINE
  8
1
 62
7
  6
CONTINUOUS
 10
348.468159
 20
362.662254
 11
347.468159
 21
362.662254
  0
LINE
  8
1
 62
7
  6
CONTINUOUS
 10
357.468159
 20
362.662254
 11
356.468159
 21
362.662254
  0
LINE
  8
1
 62
7
  6
CONTINUOUS
 10
348.868159
 20
343.062253
 11
348.868159
 21
344.062253
  0
LINE
  8
1
 62
7
  6
CONTINUOUS
 10
356.468159
 20
344.062253
 11
356.468159
 21
345.062253
  0
LINE
  8
1
 62
7
  6
CONTINUOUS
 10
353.468159
 20
343.062253
 11
353.468159
 21
340.862254
  0
LINE
  8
1
 62
7
  6
CONTINUOUS
 10
356.068159
 20
364.662254
 11
356.068159
 21
363.662254
  0
LINE
  8
1
 62
7
  6
CONTINUOUS
 10
356.468159
 20
363.662254
 11
356.068159
 21
363.662254
  0
LINE
  8
1
 62
7
  6
CONTINUOUS
 10
348.468159
 20
363.662254
 11
348.468159
 21
362.662254
  0
LINE
  8
1
 62
7
  6
CONTINUOUS
 10
356.468159
 20
363.662254
 11
356.468159
 21
362.662254
  0
LINE
  8
1
 62
7
  6
CONTINUOUS
 10
348.868159
 20
364.662254
 11
348.868159
 21
363.662254
  0
LINE
  8
1
 62
7
  6
CONTINUOUS
 10
348.868159
 20
363.662254
 11
348.468159
 21
363.662254
  0
LINE
  8
1
 62
7
  6
CONTINUOUS
 10
348.468159
 20
344.062253
 11
348.468159
 21
345.062253
  0
LINE
  8
1
 62
7
  6
CONTINUOUS
 10
351.468159
 20
366.862254
 11
351.468159
 21
364.662254
  0
LINE
  8
1
 62
7
  6
CONTINUOUS
 10
353.468159
 20
366.862254
 11
353.468159
 21
364.662254
  0
LINE
  8
1
 62
7
  6
CONTINUOUS
 10
353.468159
 20
366.862254
 11
351.468159
 21
366.862254
  0
LINE
  8
1
 62
7
  6
CONTINUOUS
 10
344.468159
 20
360.462254
 11
344.468159
 21
359.262254
  0
LINE
  8
1
 62
7
  6
CONTINUOUS
 10
344.468159
 20
360.462254
 11
347.468159
 21
360.462254
  0
LINE
  8
1
 62
7
  6
CONTINUOUS
 10
346.068159
 20
360.462254
 11
346.068159
 21
359.262254
  0
LINE
  8
1
 62
7
  6
CONTINUOUS
 10
344.468159
 20
347.262254
 11
347.468159
 21
347.262254
  0
LINE
  8
1
 62
7
  6
CONTINUOUS
 10
346.068159
 20
348.462254
 11
346.068159
 21
347.262254
  0
LINE
  8
1
 62
7
  6
CONTINUOUS
 10
344.468159
 20
348.462254
 11
347.468159
 21
348.462254
  0
LINE
  8
1
 62
7
  6
CONTINUOUS
 10
344.468159
 20
348.462254
 11
344.468159
 21
347.262254
  0
LINE
  8
1
 62
7
  6
CONTINUOUS
 10
344.468159
 20
359.262254
 11
347.468159
 21
359.262254
  0
LINE
  8
1
 62
7
  6
CONTINUOUS
 10
344.468159
 20
352.462254
 11
344.468159
 21
351.262254
  0
LINE
  8
1
 62
7
  6
CONTINUOUS
 10
344.468159
 20
352.462254
 11
347.468159
 21
352.462254
  0
LINE
  8
1
 62
7
  6
CONTINUOUS
 10
346.068159
 20
352.462254
 11
346.068159
 21
351.262254
  0
LINE
  8
1
 62
7
  6
CONTINUOUS
 10
344.468159
 20
351.262254
 11
347.468159
 21
351.262254
  0
LINE
  8
1
 62
7
  6
CONTINUOUS
 10
353.468159
 20
340.862254
 11
351.468159
 21
340.862254
  0
LINE
  8
1
 62
7
  6
CONTINUOUS
 10
360.468159
 20
360.462254
 11
360.468159
 21
359.262254
  0
LINE
  8
1
 62
7
  6
CONTINUOUS
 10
360.468159
 20
360.462254
 11
357.468159
 21
360.462254
  0
LINE
  8
1
 62
7
  6
CONTINUOUS
 10
358.868159
 20
360.462254
 11
358.868159
 21
359.262254
  0
LINE
  8
1
 62
7
  6
CONTINUOUS
 10
351.468159
 20
343.062253
 11
351.468159
 21
340.862254
  0
LINE
  8
1
 62
7
  6
CONTINUOUS
 10
360.468159
 20
347.262254
 11
357.468159
 21
347.262254
  0
LINE
  8
1
 62
7
  6
CONTINUOUS
 10
358.868159
 20
348.462254
 11
358.868159
 21
347.262254
  0
LINE
  8
1
 62
7
  6
CONTINUOUS
 10
360.468159
 20
348.462254
 11
357.468159
 21
348.462254
  0
LINE
  8
1
 62
7
  6
CONTINUOUS
 10
360.468159
 20
348.462254
 11
360.468159
 21
347.262254
  0
LINE
  8
1
 62
7
  6
CONTINUOUS
 10
360.468159
 20
359.262254
 11
357.468159
 21
359.262254
  0
LINE
  8
1
 62
7
  6
CONTINUOUS
 10
360.468159
 20
352.462254
 11
360.468159
 21
351.262254
  0
LINE
  8
1
 62
7
  6
CONTINUOUS
 10
360.468159
 20
352.462254
 11
357.468159
 21
352.462254
  0
LINE
  8
1
 62
7
  6
CONTINUOUS
 10
358.868159
 20
352.462254
 11
358.868159
 21
351.262254
  0
LINE
  8
1
 62
7
  6
CONTINUOUS
 10
360.468159
 20
351.262254
 11
357.468159
 21
351.262254
  0
LINE
  8
1
 62
7
  6
CONTINUOUS
 10
354.068159
 20
357.262254
 11
350.868159
 21
357.262254
  0
LINE
  8
1
 62
7
  6
CONTINUOUS
 10
354.068159
 20
354.262254
 11
350.868159
 21
354.262254
  0
LINE
  8
1
 62
7
  6
CONTINUOUS
 10
350.868159
 20
357.262254
 11
350.868159
 21
354.262254
  0
LINE
  8
1
 62
7
  6
CONTINUOUS
 10
354.068159
 20
357.262254
 11
354.068159
 21
354.262254
  0
LINE
  8
1
 62
7
  6
CONTINUOUS
 10
354.468159
 20
353.862254
 11
350.468159
 21
353.862254
  0
LINE
  8
1
 62
7
  6
CONTINUOUS
 10
354.468159
 20
350.062254
 11
350.468159
 21
350.062254
  0
LINE
  8
1
 62
7
  6
CONTINUOUS
 10
354.468159
 20
357.662254
 11
350.468159
 21
357.662254
  0
LINE
  8
1
 62
7
  6
CONTINUOUS
 10
354.468159
 20
357.662254
 11
354.468159
 21
350.062254
  0
LINE
  8
1
 62
7
  6
CONTINUOUS
 10
350.468159
 20
357.662254
 11
350.468159
 21
350.062254
  0
LINE
  8
1
 62
7
  6
CONTINUOUS
 10
357.468159
 20
343.062253
 11
347.468159
 21
343.062253
  0
LINE
  8
1
 62
7
  6
CONTINUOUS
 10
357.468159
 20
364.662254
 11
357.468159
 21
343.062253
  0
LINE
  8
1
 62
7
  6
CONTINUOUS
 10
347.468159
 20
364.662254
 11
347.468159
 21
343.062253
  0
LINE
  8
1
 62
7
  6
CONTINUOUS
 10
357.468159
 20
364.662254
 11
347.468159
 21
364.662254
  0
CIRCLE
  8
1
 62
7
  6
CONTINUOUS
 10
352.468159
 20
314.862254
 40
3.000000
  0
CIRCLE
  8
1
 62
7
  6
CONTINUOUS
 10
352.468159
 20
314.862254
 40
3.600000
  0
LINE
  8
1
 62
7
  6
CONTINUOUS
 10
358.668159
 20
308.662254
 11
358.668159
 21
321.062254
  0
LINE
  8
1
 62
7
  6
CONTINUOUS
 10
346.268160
 20
308.662254
 11
346.268159
 21
321.062253
  0
LINE
  8
1
 62
7
  6
CONTINUOUS
 10
357.268160
 20
308.062254
 11
355.668160
 21
308.062254
  0
LINE
  8
1
 62
7
  6
CONTINUOUS
 10
357.268159
 20
321.662254
 11
355.668159
 21
321.662254
  0
LINE
  8
1
 62
7
  6
CONTINUOUS
 10
358.668159
 20
308.662254
 11
346.268160
 21
308.662254
  0
LINE
  8
1
 62
7
  6
CONTINUOUS
 10
358.668159
 20
321.062254
 11
346.268159
 21
321.062253
  0
LINE
  8
1
 62
7
  6
CONTINUOUS
 10
349.768159
 20
308.262254
 11
349.768159
 21
308.662254
  0
LINE
  8
1
 62
7
  6
CONTINUOUS
 10
355.168160
 20
308.262254
 11
355.168160
 21
308.662254
  0
LINE
  8
1
 62
7
  6
CONTINUOUS
 10
355.668160
 20
308.062254
 11
355.668160
 21
308.662254
  0
LINE
  8
1
 62
7
  6
CONTINUOUS
 10
357.268160
 20
308.062254
 11
357.268160
 21
308.662254
  0
LINE
  8
1
 62
7
  6
CONTINUOUS
 10
347.668159
 20
308.062253
 11
347.668159
 21
308.662254
  0
LINE
  8
1
 62
7
  6
CONTINUOUS
 10
349.268159
 20
308.062253
 11
349.268159
 21
308.662254
  0
LINE
  8
1
 62
7
  6
CONTINUOUS
 10
349.268159
 20
321.662254
 11
347.668159
 21
321.662254
  0
LINE
  8
1
 62
7
  6
CONTINUOUS
 10
355.168159
 20
321.462254
 11
349.768159
 21
321.462253
  0
LINE
  8
1
 62
7
  6
CONTINUOUS
 10
349.268159
 20
308.062253
 11
347.668159
 21
308.062253
  0
LINE
  8
1
 62
7
  6
CONTINUOUS
 10
355.168160
 20
308.262254
 11
349.768159
 21
308.262254
  0
LINE
  8
1
 62
7
  6
CONTINUOUS
 10
357.268159
 20
321.062254
 11
357.268159
 21
321.662254
  0
LINE
  8
1
 62
7
  6
CONTINUOUS
 10
355.668159
 20
321.062254
 11
355.668159
 21
321.662254
  0
LINE
  8
1
 62
7
  6
CONTINUOUS
 10
355.168159
 20
321.062254
 11
355.168159
 21
321.462254
  0
LINE
  8
1
 62
7
  6
CONTINUOUS
 10
349.768159
 20
321.062253
 11
349.768159
 21
321.462253
  0
LINE
  8
1
 62
7
  6
CONTINUOUS
 10
349.268159
 20
321.062253
 11
349.268159
 21
321.662254
  0
LINE
  8
1
 62
7
  6
CONTINUOUS
 10
347.668159
 20
321.062253
 11
347.668159
 21
321.662254
  0
LINE
  8
1
 62
7
  6
CONTINUOUS
 10
366.268159
 20
316.112254
 11
366.268159
 21
313.612254
  0
LINE
  8
1
 62
7
  6
CONTINUOUS
 10
368.668159
 20
316.112254
 11
368.668159
 21
313.612254
  0
LINE
  8
1
 62
7
  6
CONTINUOUS
 10
369.468159
 20
316.112254
 11
369.468159
 21
313.612254
  0
LINE
  8
1
 62
7
  6
CONTINUOUS
 10
365.468159
 20
316.112254
 11
365.468159
 21
313.612254
  0
LINE
  8
1
 62
7
  6
CONTINUOUS
 10
365.468159
 20
316.112254
 11
369.468159
 21
316.112254
  0
LINE
  8
1
 62
7
  6
CONTINUOUS
 10
365.468159
 20
313.612254
 11
369.468159
 21
313.612254
  0
CIRCLE
  8
1
 62
7
  6
CONTINUOUS
 10
267.468159
 20
327.862254
 40
4.788000
  0
LINE
  8
1
 62
7
  6
CONTINUOUS
 10
264.276159
 20
322.846254
 11
262.452159
 21
324.670254
  0
LINE
  8
1
 62
7
  6
CONTINUOUS
 10
272.484159
 20
327.406254
 11
273.244159
 21
327.406254
  0
LINE
  8
1
 62
7
  6
CONTINUOUS
 10
272.484159
 20
328.318254
 11
273.244159
 21
328.318254
  0
LINE
  8
1
 62
7
  6
CONTINUOUS
 10
262.452159
 20
331.054254
 11
264.276159
 21
332.878253
  0
LINE
  8
1
 62
7
  6
CONTINUOUS
 10
270.508159
 20
324.163153
 11
270.508159
 21
331.561354
  0
LINE
  8
1
 62
7
  6
CONTINUOUS
 10
261.692159
 20
327.406254
 11
262.452159
 21
327.406254
  0
LINE
  8
1
 62
7
  6
CONTINUOUS
 10
261.692159
 20
328.318254
 11
262.452159
 21
328.318254
  0
LINE
  8
1
 62
7
  6
CONTINUOUS
 10
273.244159
 20
327.406254
 11
273.244159
 21
328.318254
  0
LINE
  8
1
 62
7
  6
CONTINUOUS
 10
261.692159
 20
327.406254
 11
261.692159
 21
328.318254
  0
LINE
  8
1
 62
7
  6
CONTINUOUS
 10
264.276159
 20
322.846254
 11
272.484159
 21
322.846254
  0
LINE
  8
1
 62
7
  6
CONTINUOUS
 10
264.276159
 20
332.878253
 11
272.484159
 21
332.878253
  0
LINE
  8
1
 62
7
  6
CONTINUOUS
 10
262.452159
 20
324.670254
 11
262.452159
 21
331.054254
  0
LINE
  8
1
 62
7
  6
CONTINUOUS
 10
272.484159
 20
322.846254
 11
272.484159
 21
332.878253
  0
CIRCLE
  8
1
 62
7
  6
CONTINUOUS
 10
269.468159
 20
314.862254
 40
6.300000
  0
LINE
  8
1
 62
7
  6
CONTINUOUS
 10
265.268159
 20
308.262254
 11
262.868159
 21
310.662254
  0
LINE
  8
1
 62
7
  6
CONTINUOUS
 10
276.068159
 20
314.262254
 11
277.068159
 21
314.262254
  0
LINE
  8
1
 62
7
  6
CONTINUOUS
 10
276.068159
 20
315.462254
 11
277.068159
 21
315.462254
  0
LINE
  8
1
 62
7
  6
CONTINUOUS
 10
262.868159
 20
319.062253
 11
265.268159
 21
321.462254
  0
LINE
  8
1
 62
7
  6
CONTINUOUS
 10
273.468159
 20
309.995016
 11
273.468159
 21
319.729491
  0
LINE
  8
1
 62
7
  6
CONTINUOUS
 10
261.868159
 20
314.262254
 11
262.868159
 21
314.262254
  0
LINE
  8
1
 62
7
  6
CONTINUOUS
 10
261.868159
 20
315.462254
 11
262.868159
 21
315.462254
  0
LINE
  8
1
 62
7
  6
CONTINUOUS
 10
277.068159
 20
314.262254
 11
277.068159
 21
315.462254
  0
LINE
  8
1
 62
7
  6
CONTINUOUS
 10
261.868159
 20
314.262254
 11
261.868159
 21
315.462254
  0
LINE
  8
1
 62
7
  6
CONTINUOUS
 10
265.268159
 20
308.262254
 11
276.068159
 21
308.262254
  0
LINE
  8
1
 62
7
  6
CONTINUOUS
 10
265.268159
 20
321.462254
 11
276.068159
 21
321.462254
  0
LINE
  8
1
 62
7
  6
CONTINUOUS
 10
262.868159
 20
310.662254
 11
262.868159
 21
319.062253
  0
LINE
  8
1
 62
7
  6
CONTINUOUS
 10
276.068159
 20
308.262254
 11
276.068159
 21
321.462254
  0
CIRCLE
  8
1
 62
7
  6
CONTINUOUS
 10
219.468159
 20
360.862223
 40
5.999999
  0
CIRCLE
  8
1
 62
7
  6
CONTINUOUS
 10
219.468159
 20
360.862223
 40
3.999998
  0
CIRCLE
  8
1
 62
7
  6
CONTINUOUS
 10
219.468159
 20
360.862223
 40
6.999999
  0
LINE
  8
1
 62
7
  6
CONTINUOUS
 10
212.468159
 20
353.862284
 11
226.468159
 21
353.862284
  0
LINE
  8
1
 62
7
  6
CONTINUOUS
 10
216.478512
 20
361.418838
 11
216.820532
 21
362.358530
  0
LINE
  8
1
 62
7
  6
CONTINUOUS
 10
216.820532
 20
362.358530
 11
222.458630
 21
360.306431
  0
LINE
  8
1
 62
7
  6
CONTINUOUS
 10
216.478512
 20
361.418838
 11
222.116610
 21
359.366738
  0
LINE
  8
1
 62
7
  6
CONTINUOUS
 10
212.468159
 20
367.862223
 11
226.468159
 21
367.862223
  0
LINE
  8
1
 62
7
  6
CONTINUOUS
 10
222.116610
 20
359.366738
 11
222.458630
 21
360.306431
  0
LINE
  8
1
 62
7
  6
CONTINUOUS
 10
226.468159
 20
353.862284
 11
226.468159
 21
367.862223
  0
LINE
  8
1
 62
7
  6
CONTINUOUS
 10
212.468159
 20
353.862284
 11
212.468159
 21
367.862223
  0
TEXT
  8
1
 62
7
  6
CONTINUOUS
 10
361.442326
 20
336.785012
 40
3.000000
 41
0.730776
  1
SW1
  7
KANJI
 50
90.000003
 51
0.000000
  0
TEXT
  8
1
 62
7
  6
CONTINUOUS
 10
307.851536
 20
362.819008
 40
3.000000
 41
0.676644
  1
SW3
  7
KANJI
 50
90.000003
 51
0.000000
  0
TEXT
  8
1
 62
7
  6
CONTINUOUS
 10
307.851536
 20
340.819008
 40
3.000000
 41
0.676644
  1
SW4
  7
KANJI
 50
90.000003
 51
0.000000
  0
TEXT
  8
1
 62
7
  6
CONTINUOUS
 10
307.851536
 20
318.819008
 40
3.000000
 41
0.676644
  1
SW5
  7
KANJI
 50
90.000003
 51
0.000000
  0
TEXT
  8
1
 62
7
  6
CONTINUOUS
 10
307.851536
 20
296.819008
 40
3.000000
 41
0.676644
  1
SW6
  7
KANJI
 50
90.000003
 51
0.000000
  0
TEXT
  8
1
 62
7
  6
CONTINUOUS
 10
334.852794
 20
327.570661
 40
3.600000
 41
0.639966
  1
１０
  7
KANJI
 50
0.000000
 51
0.000000
  0
TEXT
  8
1
 62
7
  6
CONTINUOUS
 10
334.852794
 20
306.170652
 40
3.600000
 41
0.666680
  1
１
  7
KANJI
 50
0.000000
 51
0.000000
  0
TEXT
  8
1
 62
7
  6
CONTINUOUS
 10
334.852794
 20
349.570661
 40
3.600000
 41
0.633288
  1
１００
  7
KANJI
 50
0.000000
 51
0.000000
  0
TEXT
  8
1
 62
7
  6
CONTINUOUS
 10
287.866981
 20
363.099066
 40
4.400000
 41
0.875000
  1
CN2
  7
KANJI
 50
90.000003
 51
0.000000
  0
TEXT
  8
1
 62
7
  6
CONTINUOUS
 10
296.266975
 20
363.099066
 40
4.400000
 41
0.875000
  1
CN3
  7
KANJI
 50
90.000003
 51
0.000000
  0
TEXT
  8
1
 62
7
  6
CONTINUOUS
 10
334.852794
 20
371.570661
 40
3.600000
 41
0.630252
  1
１０００
  7
KANJI
 50
0.000000
 51
0.000000
  0
TEXT
  8
1
 62
7
  6
CONTINUOUS
 10
363.356510
 20
365.062248
 40
4.400000
 41
0.864391
  1
電源
  7
KANJI
 50
0.000000
 51
0.000000
  0
TEXT
  8
1
 62
7
  6
CONTINUOUS
 10
363.278988
 20
357.710502
 40
2.400000
 41
0.806452
  1
LED1
  7
KANJI
 50
0.000000
 51
0.000000
  0
TEXT
  8
1
 62
7
  6
CONTINUOUS
 10
363.278988
 20
341.710502
 40
2.400000
 41
0.757576
  1
LED2
  7
KANJI
 50
0.000000
 51
0.000000
  0
TEXT
  8
1
 62
7
  6
CONTINUOUS
 10
363.278988
 20
325.710502
 40
2.400000
 41
0.757576
  1
LED3
  7
KANJI
 50
0.000000
 51
0.000000
  0
TEXT
  8
1
 62
7
  6
CONTINUOUS
 10
363.356510
 20
349.062248
 40
4.400000
 41
0.864391
  1
照合
  7
KANJI
 50
0.000000
 51
0.000000
  0
TEXT
  8
1
 62
7
  6
CONTINUOUS
 10
363.356510
 20
333.062248
 40
4.400000
 41
0.864391
  1
解錠
  7
KANJI
 50
0.000000
 51
0.000000
  0
TEXT
  8
1
 62
7
  6
CONTINUOUS
 10
344.344197
 20
312.683175
 40
3.000000
 41
0.676644
  1
SW2
  7
KANJI
 50
90.000003
 51
0.000000
  0
TEXT
  8
1
 62
7
  6
CONTINUOUS
 10
350.221124
 20
368.629035
 40
5.400000
 41
0.900473
  1
有
  7
KANJI
 50
0.000000
 51
0.000000
  0
TEXT
  8
1
 62
7
  6
CONTINUOUS
 10
361.199810
 20
317.062248
 40
4.400000
 41
0.611154
  1
アドレス
  7
KANJI
 50
0.000000
 51
0.000000
  0
TEXT
  8
1
 62
7
  6
CONTINUOUS
 10
363.278988
 20
309.710494
 40
2.400000
 41
0.757576
  1
LED4
  7
KANJI
 50
0.000000
 51
0.000000
  0
TEXT
  8
1
 62
7
  6
CONTINUOUS
 10
342.199337
 20
300.993720
 40
4.400000
 41
0.608383
  1
アドレスＳＷ
  7
KANJI
 50
0.000000
 51
0.000000
  0
TEXT
  8
1
 62
7
  6
CONTINUOUS
 10
350.762613
 20
333.838798
 40
5.400000
 41
0.900473
  1
無
  7
KANJI
 50
0.000000
 51
0.000000
  0
TEXT
  8
1
 62
7
  6
CONTINUOUS
 10
337.592068
 20
376.325538
 40
5.400000
 41
0.848824
  1
解錠入力
  7
KANJI
 50
0.000000
 51
0.000000
  0
TEXT
  8
1
 62
7
  6
CONTINUOUS
 10
259.800273
 20
297.690287
 40
4.000000
 41
1.110426
  1
CN1
  7
KANJI
 50
0.000000
 51
0.000000
  0
ARC
  8
1
 62
7
  6
CONTINUOUS
 10
283.968159
 20
320.862254
 40
1.000000
 50
90.000000
 51
-90.000000
  0
ARC
  8
1
 62
7
  6
CONTINUOUS
 10
296.968159
 20
320.862254
 40
1.000000
 50
-90.000000
 51
90.000000
  0
ARC
  8
1
 62
7
  6
CONTINUOUS
 10
283.968159
 20
324.862254
 40
1.000000
 50
90.000000
 51
-90.000000
  0
ARC
  8
1
 62
7
  6
CONTINUOUS
 10
296.968159
 20
324.862254
 40
1.000000
 50
-90.000000
 51
90.000000
  0
ARC
  8
1
 62
7
  6
CONTINUOUS
 10
283.968159
 20
352.862254
 40
1.000000
 50
90.000000
 51
-90.000000
  0
ARC
  8
1
 62
7
  6
CONTINUOUS
 10
296.968159
 20
352.862254
 40
1.000000
 50
-90.000000
 51
90.000000
  0
ARC
  8
1
 62
7
  6
CONTINUOUS
 10
296.968159
 20
348.862254
 40
1.000000
 50
-90.000000
 51
90.000000
  0
ARC
  8
1
 62
7
  6
CONTINUOUS
 10
283.968159
 20
348.862254
 40
1.000000
 50
90.000000
 51
-90.000000
  0
ARC
  8
1
 62
7
  6
CONTINUOUS
 10
283.968159
 20
344.862254
 40
1.000000
 50
90.000000
 51
-90.000000
  0
ARC
  8
1
 62
7
  6
CONTINUOUS
 10
296.968159
 20
344.862254
 40
1.000000
 50
-90.000000
 51
90.000000
  0
ARC
  8
1
 62
7
  6
CONTINUOUS
 10
296.968159
 20
356.862254
 40
1.000000
 50
-90.000000
 51
90.000000
  0
ARC
  8
1
 62
7
  6
CONTINUOUS
 10
296.968159
 20
340.862254
 40
1.000000
 50
-90.000000
 51
90.000000
  0
ARC
  8
1
 62
7
  6
CONTINUOUS
 10
283.968159
 20
340.862254
 40
1.000000
 50
90.000000
 51
-90.000000
  0
ARC
  8
1
 62
7
  6
CONTINUOUS
 10
283.968159
 20
336.862254
 40
1.000000
 50
90.000000
 51
-90.000000
  0
ARC
  8
1
 62
7
  6
CONTINUOUS
 10
296.968159
 20
336.862254
 40
1.000000
 50
-90.000000
 51
90.000000
  0
ARC
  8
1
 62
7
  6
CONTINUOUS
 10
296.968159
 20
332.862254
 40
1.000000
 50
-90.000000
 51
90.000000
  0
ARC
  8
1
 62
7
  6
CONTINUOUS
 10
283.968159
 20
332.862254
 40
1.000000
 50
90.000000
 51
-90.000000
  0
ARC
  8
1
 62
7
  6
CONTINUOUS
 10
283.968159
 20
356.862254
 40
1.000000
 50
90.000000
 51
-90.000000
  0
ARC
  8
1
 62
7
  6
CONTINUOUS
 10
283.968159
 20
328.862254
 40
1.000000
 50
90.000000
 51
-90.000000
  0
ARC
  8
1
 62
7
  6
CONTINUOUS
 10
296.968159
 20
328.862254
 40
1.000000
 50
-90.000000
 51
90.000000
  0
ARC
  8
1
 62
7
  6
CONTINUOUS
 10
251.068165
 20
292.262255
 40
1.440000
 50
0.000000
 51
-179.999089
  0
ARC
  8
1
 62
7
  6
CONTINUOUS
 10
256.068165
 20
292.262255
 40
1.440000
 50
0.000000
 51
-179.999089
  0
ARC
  8
1
 62
7
  6
CONTINUOUS
 10
261.068165
 20
292.262255
 40
1.440000
 50
0.000000
 51
-179.999089
  0
ARC
  8
1
 62
7
  6
CONTINUOUS
 10
266.068165
 20
292.262255
 40
1.440000
 50
0.000000
 51
-179.999089
  0
ARC
  8
1
 62
7
  6
CONTINUOUS
 10
246.068165
 20
292.262255
 40
1.440000
 50
0.000000
 51
-179.999089
  0
ARC
  8
1
 62
7
  6
CONTINUOUS
 10
241.068165
 20
292.262255
 40
1.440000
 50
0.000000
 51
-179.999089
  0
ARC
  8
1
 62
7
  6
CONTINUOUS
 10
236.068165
 20
292.262255
 40
1.440000
 50
0.000000
 51
-179.999089
  0
ARC
  8
1
 62
7
  6
CONTINUOUS
 10
231.068165
 20
292.262255
 40
1.440000
 50
0.000000
 51
-179.999089
  0
CIRCLE
  8
1
 62
7
  6
CONTINUOUS
 10
300.468159
 20
295.862254
 40
3.500000
  0
CIRCLE
  8
1
 62
7
  6
CONTINUOUS
 10
364.468129
 20
295.862254
 40
3.500000
  0
CIRCLE
  8
1
 62
7
  6
CONTINUOUS
 10
364.468129
 20
381.862254
 40
3.500000
  0
CIRCLE
  8
1
 62
7
  6
CONTINUOUS
 10
300.468159
 20
381.862254
 40
3.500000
  0
CIRCLE
  8
1
 62
7
  6
CONTINUOUS
 10
216.468159
 20
295.862254
 40
6.500000
  0
CIRCLE
  8
1
 62
7
  6
CONTINUOUS
 10
280.468159
 20
295.862254
 40
6.500000
  0
CIRCLE
  8
1
 62
7
  6
CONTINUOUS
 10
280.468159
 20
381.862254
 40
6.500000
  0
CIRCLE
  8
1
 62
7
  6
CONTINUOUS
 10
216.468159
 20
381.862254
 40
6.500000
  0
LINE
  8
1
 62
7
  6
CONTINUOUS
 10
236.468159
 20
373.862254
 11
260.468159
 21
373.862254
  0
LINE
  8
1
 62
7
  6
CONTINUOUS
 10
236.468159
 20
385.862254
 11
236.468159
 21
373.862254
  0
LINE
  8
1
 62
7
  6
CONTINUOUS
 10
260.468159
 20
385.862254
 11
260.468159
 21
373.862254
  0
LINE
  8
1
 62
7
  6
CONTINUOUS
 10
236.468159
 20
385.862254
 11
260.468159
 21
385.862254
  0
LINE
  8
1
 62
7
  6
CONTINUOUS
 10
293.468159
 20
359.262263
 11
293.468159
 21
357.862254
  0
LINE
  8
1
 62
7
  6
CONTINUOUS
 10
293.468159
 20
355.862254
 11
293.468159
 21
353.862254
  0
LINE
  8
1
 62
7
  6
CONTINUOUS
 10
293.468159
 20
351.862254
 11
293.468159
 21
349.862254
  0
LINE
  8
1
 62
7
  6
CONTINUOUS
 10
293.468159
 20
347.862254
 11
293.468159
 21
345.862254
  0
LINE
  8
1
 62
7
  6
CONTINUOUS
 10
293.468159
 20
343.862254
 11
293.468159
 21
341.862254
  0
LINE
  8
1
 62
7
  6
CONTINUOUS
 10
293.468159
 20
339.862254
 11
293.468159
 21
337.862254
  0
LINE
  8
1
 62
7
  6
CONTINUOUS
 10
293.468159
 20
335.862254
 11
293.468159
 21
333.862254
  0
LINE
  8
1
 62
7
  6
CONTINUOUS
 10
293.468159
 20
331.862254
 11
293.468159
 21
329.862254
  0
LINE
  8
1
 62
7
  6
CONTINUOUS
 10
293.468159
 20
327.862254
 11
293.468159
 21
325.862254
  0
LINE
  8
1
 62
7
  6
CONTINUOUS
 10
293.468159
 20
323.862254
 11
293.468159
 21
321.862254
  0
LINE
  8
1
 62
7
  6
CONTINUOUS
 10
293.468159
 20
319.862254
 11
293.468159
 21
318.462260
  0
LINE
  8
1
 62
7
  6
CONTINUOUS
 10
287.468159
 20
355.862254
 11
287.468159
 21
353.862254
  0
LINE
  8
1
 62
7
  6
CONTINUOUS
 10
287.468159
 20
351.862254
 11
287.468159
 21
349.862254
  0
LINE
  8
1
 62
7
  6
CONTINUOUS
 10
287.468159
 20
347.862254
 11
287.468159
 21
345.862254
  0
LINE
  8
1
 62
7
  6
CONTINUOUS
 10
287.468159
 20
343.862254
 11
287.468159
 21
341.862254
  0
LINE
  8
1
 62
7
  6
CONTINUOUS
 10
287.468159
 20
339.862254
 11
287.468159
 21
337.862254
  0
LINE
  8
1
 62
7
  6
CONTINUOUS
 10
287.468159
 20
335.862254
 11
287.468159
 21
333.862254
  0
LINE
  8
1
 62
7
  6
CONTINUOUS
 10
287.468159
 20
331.862254
 11
287.468159
 21
329.862254
  0
LINE
  8
1
 62
7
  6
CONTINUOUS
 10
287.468159
 20
327.862254
 11
287.468159
 21
325.862254
  0
LINE
  8
1
 62
7
  6
CONTINUOUS
 10
287.468159
 20
323.862254
 11
287.468159
 21
321.862254
  0
LINE
  8
1
 62
7
  6
CONTINUOUS
 10
295.568150
 20
319.862254
 11
295.568150
 21
319.462260
  0
LINE
  8
1
 62
7
  6
CONTINUOUS
 10
285.368153
 20
319.862254
 11
285.368153
 21
319.462260
  0
LINE
  8
1
 62
7
  6
CONTINUOUS
 10
296.968159
 20
319.862254
 11
283.968159
 21
319.862254
  0
LINE
  8
1
 62
7
  6
CONTINUOUS
 10
295.568150
 20
322.262263
 11
295.568150
 21
321.862254
  0
LINE
  8
1
 62
7
  6
CONTINUOUS
 10
298.368153
 20
319.462260
 11
295.568150
 21
319.462260
  0
LINE
  8
1
 62
7
  6
CONTINUOUS
 10
298.368153
 20
322.262263
 11
298.368153
 21
319.462260
  0
LINE
  8
1
 62
7
  6
CONTINUOUS
 10
283.968159
 20
321.862254
 11
296.968159
 21
321.862254
  0
LINE
  8
1
 62
7
  6
CONTINUOUS
 10
282.568150
 20
322.262263
 11
285.368153
 21
322.262263
  0
LINE
  8
1
 62
7
  6
CONTINUOUS
 10
282.568150
 20
319.462260
 11
285.368153
 21
319.462260
  0
LINE
  8
1
 62
7
  6
CONTINUOUS
 10
282.568150
 20
322.262263
 11
282.568150
 21
319.462260
  0
LINE
  8
1
 62
7
  6
CONTINUOUS
 10
285.368153
 20
322.262263
 11
285.368153
 21
321.862254
  0
LINE
  8
1
 62
7
  6
CONTINUOUS
 10
298.368153
 20
322.262263
 11
295.568150
 21
322.262263
  0
LINE
  8
1
 62
7
  6
CONTINUOUS
 10
295.568150
 20
323.862254
 11
295.568150
 21
323.462260
  0
LINE
  8
1
 62
7
  6
CONTINUOUS
 10
285.368153
 20
323.862254
 11
285.368153
 21
323.462260
  0
LINE
  8
1
 62
7
  6
CONTINUOUS
 10
296.968159
 20
323.862254
 11
283.968159
 21
323.862254
  0
LINE
  8
1
 62
7
  6
CONTINUOUS
 10
295.568150
 20
326.262263
 11
295.568150
 21
325.862254
  0
LINE
  8
1
 62
7
  6
CONTINUOUS
 10
298.368153
 20
323.462260
 11
295.568150
 21
323.462260
  0
LINE
  8
1
 62
7
  6
CONTINUOUS
 10
298.368153
 20
326.262263
 11
298.368153
 21
323.462260
  0
LINE
  8
1
 62
7
  6
CONTINUOUS
 10
283.968159
 20
325.862254
 11
296.968159
 21
325.862254
  0
LINE
  8
1
 62
7
  6
CONTINUOUS
 10
282.568150
 20
326.262263
 11
285.368153
 21
326.262263
  0
LINE
  8
1
 62
7
  6
CONTINUOUS
 10
282.568150
 20
323.462260
 11
285.368153
 21
323.462260
  0
LINE
  8
1
 62
7
  6
CONTINUOUS
 10
282.568150
 20
326.262263
 11
282.568150
 21
323.462260
  0
LINE
  8
1
 62
7
  6
CONTINUOUS
 10
285.368153
 20
326.262263
 11
285.368153
 21
325.862254
  0
LINE
  8
1
 62
7
  6
CONTINUOUS
 10
298.368153
 20
326.262263
 11
295.568150
 21
326.262263
  0
LINE
  8
1
 62
7
  6
CONTINUOUS
 10
295.568150
 20
327.862254
 11
295.568150
 21
327.462260
  0
LINE
  8
1
 62
7
  6
CONTINUOUS
 10
285.368153
 20
327.862254
 11
285.368153
 21
327.462260
  0
LINE
  8
1
 62
7
  6
CONTINUOUS
 10
296.968159
 20
327.862254
 11
283.968159
 21
327.862254
  0
LINE
  8
1
 62
7
  6
CONTINUOUS
 10
295.568150
 20
330.262263
 11
295.568150
 21
329.862254
  0
LINE
  8
1
 62
7
  6
CONTINUOUS
 10
298.368153
 20
327.462260
 11
295.568150
 21
327.462260
  0
LINE
  8
1
 62
7
  6
CONTINUOUS
 10
295.568150
 20
355.862254
 11
295.568150
 21
355.462260
  0
LINE
  8
1
 62
7
  6
CONTINUOUS
 10
298.368153
 20
330.262263
 11
298.368153
 21
327.462260
  0
LINE
  8
1
 62
7
  6
CONTINUOUS
 10
285.368153
 20
355.862254
 11
285.368153
 21
355.462260
  0
LINE
  8
1
 62
7
  6
CONTINUOUS
 10
296.968159
 20
355.862254
 11
283.968159
 21
355.862254
  0
LINE
  8
1
 62
7
  6
CONTINUOUS
 10
287.468159
 20
319.862254
 11
287.468159
 21
318.462260
  0
LINE
  8
1
 62
7
  6
CONTINUOUS
 10
283.968159
 20
353.862254
 11
296.968159
 21
353.862254
  0
LINE
  8
1
 62
7
  6
CONTINUOUS
 10
282.568150
 20
354.262263
 11
285.368153
 21
354.262263
  0
LINE
  8
1
 62
7
  6
CONTINUOUS
 10
282.568150
 20
351.462260
 11
285.368153
 21
351.462260
  0
LINE
  8
1
 62
7
  6
CONTINUOUS
 10
282.568150
 20
354.262263
 11
282.568150
 21
351.462260
  0
LINE
  8
1
 62
7
  6
CONTINUOUS
 10
285.368153
 20
354.262263
 11
285.368153
 21
353.862254
  0
LINE
  8
1
 62
7
  6
CONTINUOUS
 10
298.368153
 20
354.262263
 11
295.568150
 21
354.262263
  0
LINE
  8
1
 62
7
  6
CONTINUOUS
 10
298.368153
 20
351.462260
 11
295.568150
 21
351.462260
  0
LINE
  8
1
 62
7
  6
CONTINUOUS
 10
298.368153
 20
354.262263
 11
298.368153
 21
351.462260
  0
LINE
  8
1
 62
7
  6
CONTINUOUS
 10
295.568150
 20
354.262263
 11
295.568150
 21
353.862254
  0
LINE
  8
1
 62
7
  6
CONTINUOUS
 10
296.968159
 20
351.862254
 11
283.968159
 21
351.862254
  0
LINE
  8
1
 62
7
  6
CONTINUOUS
 10
285.368153
 20
351.862254
 11
285.368153
 21
351.462260
  0
LINE
  8
1
 62
7
  6
CONTINUOUS
 10
295.568150
 20
351.862254
 11
295.568150
 21
351.462260
  0
LINE
  8
1
 62
7
  6
CONTINUOUS
 10
295.568150
 20
347.862254
 11
295.568150
 21
347.462260
  0
LINE
  8
1
 62
7
  6
CONTINUOUS
 10
285.368153
 20
347.862254
 11
285.368153
 21
347.462260
  0
LINE
  8
1
 62
7
  6
CONTINUOUS
 10
296.968159
 20
347.862254
 11
283.968159
 21
347.862254
  0
LINE
  8
1
 62
7
  6
CONTINUOUS
 10
295.568150
 20
350.262263
 11
295.568150
 21
349.862254
  0
LINE
  8
1
 62
7
  6
CONTINUOUS
 10
298.368153
 20
350.262263
 11
298.368153
 21
347.462260
  0
LINE
  8
1
 62
7
  6
CONTINUOUS
 10
298.368153
 20
347.462260
 11
295.568150
 21
347.462260
  0
LINE
  8
1
 62
7
  6
CONTINUOUS
 10
298.368153
 20
350.262263
 11
295.568150
 21
350.262263
  0
LINE
  8
1
 62
7
  6
CONTINUOUS
 10
285.368153
 20
350.262263
 11
285.368153
 21
349.862254
  0
LINE
  8
1
 62
7
  6
CONTINUOUS
 10
282.568150
 20
350.262263
 11
282.568150
 21
347.462260
  0
LINE
  8
1
 62
7
  6
CONTINUOUS
 10
282.568150
 20
347.462260
 11
285.368153
 21
347.462260
  0
LINE
  8
1
 62
7
  6
CONTINUOUS
 10
282.568150
 20
350.262263
 11
285.368153
 21
350.262263
  0
LINE
  8
1
 62
7
  6
CONTINUOUS
 10
283.968159
 20
349.862254
 11
296.968159
 21
349.862254
  0
LINE
  8
1
 62
7
  6
CONTINUOUS
 10
283.968159
 20
345.862254
 11
296.968159
 21
345.862254
  0
LINE
  8
1
 62
7
  6
CONTINUOUS
 10
282.568150
 20
346.262263
 11
285.368153
 21
346.262263
  0
LINE
  8
1
 62
7
  6
CONTINUOUS
 10
295.568150
 20
358.262263
 11
295.568150
 21
357.862254
  0
LINE
  8
1
 62
7
  6
CONTINUOUS
 10
298.368153
 20
358.262263
 11
298.368153
 21
355.462260
  0
LINE
  8
1
 62
7
  6
CONTINUOUS
 10
298.368153
 20
355.462260
 11
295.568150
 21
355.462260
  0
LINE
  8
1
 62
7
  6
CONTINUOUS
 10
298.368153
 20
358.262263
 11
295.568150
 21
358.262263
  0
LINE
  8
1
 62
7
  6
CONTINUOUS
 10
282.568150
 20
343.462260
 11
285.368153
 21
343.462260
  0
LINE
  8
1
 62
7
  6
CONTINUOUS
 10
282.568150
 20
346.262263
 11
282.568150
 21
343.462260
  0
LINE
  8
1
 62
7
  6
CONTINUOUS
 10
285.368153
 20
346.262263
 11
285.368153
 21
345.862254
  0
LINE
  8
1
 62
7
  6
CONTINUOUS
 10
298.368153
 20
346.262263
 11
295.568150
 21
346.262263
  0
LINE
  8
1
 62
7
  6
CONTINUOUS
 10
298.368153
 20
343.462260
 11
295.568150
 21
343.462260
  0
LINE
  8
1
 62
7
  6
CONTINUOUS
 10
298.368153
 20
346.262263
 11
298.368153
 21
343.462260
  0
LINE
  8
1
 62
7
  6
CONTINUOUS
 10
295.568150
 20
346.262263
 11
295.568150
 21
345.862254
  0
LINE
  8
1
 62
7
  6
CONTINUOUS
 10
296.968159
 20
343.862254
 11
283.968159
 21
343.862254
  0
LINE
  8
1
 62
7
  6
CONTINUOUS
 10
285.368153
 20
343.862254
 11
285.368153
 21
343.462260
  0
LINE
  8
1
 62
7
  6
CONTINUOUS
 10
295.568150
 20
343.862254
 11
295.568150
 21
343.462260
  0
LINE
  8
1
 62
7
  6
CONTINUOUS
 10
295.568150
 20
339.862254
 11
295.568150
 21
339.462260
  0
LINE
  8
1
 62
7
  6
CONTINUOUS
 10
285.368153
 20
339.862254
 11
285.368153
 21
339.462260
  0
LINE
  8
1
 62
7
  6
CONTINUOUS
 10
296.968159
 20
339.862254
 11
283.968159
 21
339.862254
  0
LINE
  8
1
 62
7
  6
CONTINUOUS
 10
295.568150
 20
342.262263
 11
295.568150
 21
341.862254
  0
LINE
  8
1
 62
7
  6
CONTINUOUS
 10
298.368153
 20
342.262263
 11
298.368153
 21
339.462260
  0
LINE
  8
1
 62
7
  6
CONTINUOUS
 10
298.368153
 20
339.462260
 11
295.568150
 21
339.462260
  0
LINE
  8
1
 62
7
  6
CONTINUOUS
 10
298.368153
 20
342.262263
 11
295.568150
 21
342.262263
  0
LINE
  8
1
 62
7
  6
CONTINUOUS
 10
285.368153
 20
342.262263
 11
285.368153
 21
341.862254
  0
LINE
  8
1
 62
7
  6
CONTINUOUS
 10
282.568150
 20
342.262263
 11
282.568150
 21
339.462260
  0
LINE
  8
1
 62
7
  6
CONTINUOUS
 10
282.568150
 20
339.462260
 11
285.368153
 21
339.462260
  0
LINE
  8
1
 62
7
  6
CONTINUOUS
 10
282.568150
 20
342.262263
 11
285.368153
 21
342.262263
  0
LINE
  8
1
 62
7
  6
CONTINUOUS
 10
283.968159
 20
341.862254
 11
296.968159
 21
341.862254
  0
LINE
  8
1
 62
7
  6
CONTINUOUS
 10
283.968159
 20
337.862254
 11
296.968159
 21
337.862254
  0
LINE
  8
1
 62
7
  6
CONTINUOUS
 10
282.568150
 20
338.262263
 11
285.368153
 21
338.262263
  0
LINE
  8
1
 62
7
  6
CONTINUOUS
 10
282.568150
 20
335.462260
 11
285.368153
 21
335.462260
  0
LINE
  8
1
 62
7
  6
CONTINUOUS
 10
282.568150
 20
338.262263
 11
282.568150
 21
335.462260
  0
LINE
  8
1
 62
7
  6
CONTINUOUS
 10
285.368153
 20
338.262263
 11
285.368153
 21
337.862254
  0
LINE
  8
1
 62
7
  6
CONTINUOUS
 10
298.368153
 20
338.262263
 11
295.568150
 21
338.262263
  0
LINE
  8
1
 62
7
  6
CONTINUOUS
 10
298.368153
 20
335.462260
 11
295.568150
 21
335.462260
  0
LINE
  8
1
 62
7
  6
CONTINUOUS
 10
298.368153
 20
338.262263
 11
298.368153
 21
335.462260
  0
LINE
  8
1
 62
7
  6
CONTINUOUS
 10
295.568150
 20
338.262263
 11
295.568150
 21
337.862254
  0
LINE
  8
1
 62
7
  6
CONTINUOUS
 10
296.968159
 20
335.862254
 11
283.968159
 21
335.862254
  0
LINE
  8
1
 62
7
  6
CONTINUOUS
 10
285.368153
 20
335.862254
 11
285.368153
 21
335.462260
  0
LINE
  8
1
 62
7
  6
CONTINUOUS
 10
295.568150
 20
335.862254
 11
295.568150
 21
335.462260
  0
LINE
  8
1
 62
7
  6
CONTINUOUS
 10
295.568150
 20
331.862254
 11
295.568150
 21
331.462260
  0
LINE
  8
1
 62
7
  6
CONTINUOUS
 10
285.368153
 20
331.862254
 11
285.368153
 21
331.462260
  0
LINE
  8
1
 62
7
  6
CONTINUOUS
 10
296.968159
 20
331.862254
 11
283.968159
 21
331.862254
  0
LINE
  8
1
 62
7
  6
CONTINUOUS
 10
295.568150
 20
334.262263
 11
295.568150
 21
333.862254
  0
LINE
  8
1
 62
7
  6
CONTINUOUS
 10
298.368153
 20
334.262263
 11
298.368153
 21
331.462260
  0
LINE
  8
1
 62
7
  6
CONTINUOUS
 10
298.368153
 20
331.462260
 11
295.568150
 21
331.462260
  0
LINE
  8
1
 62
7
  6
CONTINUOUS
 10
285.368153
 20
358.262263
 11
285.368153
 21
357.862254
  0
LINE
  8
1
 62
7
  6
CONTINUOUS
 10
282.568150
 20
358.262263
 11
282.568150
 21
355.462260
  0
LINE
  8
1
 62
7
  6
CONTINUOUS
 10
282.568150
 20
355.462260
 11
285.368153
 21
355.462260
  0
LINE
  8
1
 62
7
  6
CONTINUOUS
 10
282.568150
 20
358.262263
 11
285.368153
 21
358.262263
  0
LINE
  8
1
 62
7
  6
CONTINUOUS
 10
298.368153
 20
334.262263
 11
295.568150
 21
334.262263
  0
LINE
  8
1
 62
7
  6
CONTINUOUS
 10
285.368153
 20
334.262263
 11
285.368153
 21
333.862254
  0
LINE
  8
1
 62
7
  6
CONTINUOUS
 10
282.568150
 20
334.262263
 11
282.568150
 21
331.462260
  0
LINE
  8
1
 62
7
  6
CONTINUOUS
 10
282.568150
 20
331.462260
 11
285.368153
 21
331.462260
  0
LINE
  8
1
 62
7
  6
CONTINUOUS
 10
282.568150
 20
334.262263
 11
285.368153
 21
334.262263
  0
LINE
  8
1
 62
7
  6
CONTINUOUS
 10
283.968159
 20
333.862254
 11
296.968159
 21
333.862254
  0
LINE
  8
1
 62
7
  6
CONTINUOUS
 10
283.968159
 20
329.862254
 11
296.968159
 21
329.862254
  0
LINE
  8
1
 62
7
  6
CONTINUOUS
 10
282.568150
 20
330.262263
 11
285.368153
 21
330.262263
  0
LINE
  8
1
 62
7
  6
CONTINUOUS
 10
282.568150
 20
327.462260
 11
285.368153
 21
327.462260
  0
LINE
  8
1
 62
7
  6
CONTINUOUS
 10
282.568150
 20
330.262263
 11
282.568150
 21
327.462260
  0
LINE
  8
1
 62
7
  6
CONTINUOUS
 10
285.368153
 20
330.262263
 11
285.368153
 21
329.862254
  0
LINE
  8
1
 62
7
  6
CONTINUOUS
 10
300.468159
 20
318.462260
 11
293.468159
 21
318.462260
  0
LINE
  8
1
 62
7
  6
CONTINUOUS
 10
280.468159
 20
359.262263
 11
280.468159
 21
318.462260
  0
LINE
  8
1
 62
7
  6
CONTINUOUS
 10
300.468159
 20
359.262263
 11
300.468159
 21
318.462260
  0
LINE
  8
1
 62
7
  6
CONTINUOUS
 10
300.468159
 20
359.262263
 11
293.468159
 21
359.262263
  0
LINE
  8
1
 62
7
  6
CONTINUOUS
 10
287.468159
 20
359.262263
 11
287.468159
 21
357.862254
  0
LINE
  8
1
 62
7
  6
CONTINUOUS
 10
280.468159
 20
318.462260
 11
287.468159
 21
318.462260
  0
LINE
  8
1
 62
7
  6
CONTINUOUS
 10
280.468159
 20
359.262263
 11
287.468159
 21
359.262263
  0
LINE
  8
1
 62
7
  6
CONTINUOUS
 10
283.968159
 20
357.862254
 11
296.968159
 21
357.862254
  0
LINE
  8
1
 62
7
  6
CONTINUOUS
 10
298.368153
 20
330.262263
 11
295.568150
 21
330.262263
  0
LINE
  8
1
 62
7
  6
CONTINUOUS
 10
262.508168
 20
290.462252
 11
262.868153
 21
290.462252
  0
LINE
  8
1
 62
7
  6
CONTINUOUS
 10
252.508168
 20
290.462252
 11
252.868153
 21
290.462252
  0
LINE
  8
1
 62
7
  6
CONTINUOUS
 10
247.508168
 20
290.462252
 11
247.868153
 21
290.462252
  0
LINE
  8
1
 62
7
  6
CONTINUOUS
 10
257.508168
 20
290.462252
 11
257.868153
 21
290.462252
  0
LINE
  8
1
 62
7
  6
CONTINUOUS
 10
242.508168
 20
290.462252
 11
242.868153
 21
290.462252
  0
LINE
  8
1
 62
7
  6
CONTINUOUS
 10
267.868153
 20
295.762248
 11
270.068165
 21
295.762248
  0
LINE
  8
1
 62
7
  6
CONTINUOUS
 10
262.868153
 20
295.762248
 11
264.268162
 21
295.762248
  0
LINE
  8
1
 62
7
  6
CONTINUOUS
 10
257.868153
 20
295.762248
 11
259.268162
 21
295.762248
  0
LINE
  8
1
 62
7
  6
CONTINUOUS
 10
247.868153
 20
295.762248
 11
249.268147
 21
295.762248
  0
LINE
  8
1
 62
7
  6
CONTINUOUS
 10
252.868153
 20
295.762248
 11
254.258275
 21
295.762248
  0
LINE
  8
1
 62
7
  6
CONTINUOUS
 10
242.868153
 20
295.762248
 11
244.268147
 21
295.762248
  0
LINE
  8
1
 62
7
  6
CONTINUOUS
 10
237.868153
 20
295.762248
 11
239.268147
 21
295.762248
  0
LINE
  8
1
 62
7
  6
CONTINUOUS
 10
264.268162
 20
296.062251
 11
267.868153
 21
296.062251
  0
LINE
  8
1
 62
7
  6
CONTINUOUS
 10
264.268162
 20
296.062251
 11
264.268162
 21
295.762248
  0
LINE
  8
1
 62
7
  6
CONTINUOUS
 10
267.868153
 20
296.062251
 11
267.868153
 21
295.762248
  0
LINE
  8
1
 62
7
  6
CONTINUOUS
 10
259.268162
 20
296.062251
 11
262.868153
 21
296.062251
  0
LINE
  8
1
 62
7
  6
CONTINUOUS
 10
259.268162
 20
296.062251
 11
259.268162
 21
295.762248
  0
LINE
  8
1
 62
7
  6
CONTINUOUS
 10
262.868153
 20
296.062251
 11
262.868153
 21
295.762248
  0
LINE
  8
1
 62
7
  6
CONTINUOUS
 10
254.268162
 20
296.062251
 11
257.868153
 21
296.062251
  0
LINE
  8
1
 62
7
  6
CONTINUOUS
 10
254.268162
 20
296.062251
 11
254.268162
 21
295.762248
  0
LINE
  8
1
 62
7
  6
CONTINUOUS
 10
257.868153
 20
296.062251
 11
257.868153
 21
295.762248
  0
LINE
  8
1
 62
7
  6
CONTINUOUS
 10
232.868153
 20
296.062251
 11
232.868153
 21
295.762248
  0
LINE
  8
1
 62
7
  6
CONTINUOUS
 10
229.268147
 20
296.062251
 11
229.268147
 21
295.762248
  0
LINE
  8
1
 62
7
  6
CONTINUOUS
 10
237.868153
 20
296.062251
 11
237.868153
 21
295.762248
  0
LINE
  8
1
 62
7
  6
CONTINUOUS
 10
234.268147
 20
296.062251
 11
234.268147
 21
295.762248
  0
LINE
  8
1
 62
7
  6
CONTINUOUS
 10
234.268147
 20
296.062251
 11
237.868153
 21
296.062251
  0
LINE
  8
1
 62
7
  6
CONTINUOUS
 10
232.868153
 20
295.762248
 11
234.268147
 21
295.762248
  0
LINE
  8
1
 62
7
  6
CONTINUOUS
 10
229.268147
 20
296.062251
 11
232.868153
 21
296.062251
  0
LINE
  8
1
 62
7
  6
CONTINUOUS
 10
249.268147
 20
296.062251
 11
252.868153
 21
296.062251
  0
LINE
  8
1
 62
7
  6
CONTINUOUS
 10
249.268147
 20
296.062251
 11
249.268147
 21
295.762248
  0
LINE
  8
1
 62
7
  6
CONTINUOUS
 10
227.068165
 20
289.162257
 11
229.628163
 21
289.162257
  0
LINE
  8
1
 62
7
  6
CONTINUOUS
 10
227.068165
 20
295.762248
 11
227.068165
 21
289.162257
  0
LINE
  8
1
 62
7
  6
CONTINUOUS
 10
270.068165
 20
295.762248
 11
270.068165
 21
289.162257
  0
LINE
  8
1
 62
7
  6
CONTINUOUS
 10
229.268147
 20
290.462252
 11
229.628163
 21
290.462252
  0
LINE
  8
1
 62
7
  6
CONTINUOUS
 10
267.508168
 20
289.162257
 11
270.068165
 21
289.162257
  0
LINE
  8
1
 62
7
  6
CONTINUOUS
 10
236.368153
 20
294.662257
 11
236.368153
 21
294.062251
  0
LINE
  8
1
 62
7
  6
CONTINUOUS
 10
232.546406
 20
290.462252
 11
232.868153
 21
290.462252
  0
LINE
  8
1
 62
7
  6
CONTINUOUS
 10
232.868153
 20
294.062251
 11
232.868153
 21
290.462252
  0
LINE
  8
1
 62
7
  6
CONTINUOUS
 10
262.508168
 20
285.862254
 11
264.628163
 21
285.862254
  0
LINE
  8
1
 62
7
  6
CONTINUOUS
 10
229.268147
 20
294.062251
 11
229.268147
 21
290.462252
  0
LINE
  8
1
 62
7
  6
CONTINUOUS
 10
251.368153
 20
294.662257
 11
251.368153
 21
294.062251
  0
LINE
  8
1
 62
7
  6
CONTINUOUS
 10
229.268147
 20
294.062251
 11
230.768147
 21
294.062251
  0
LINE
  8
1
 62
7
  6
CONTINUOUS
 10
227.068165
 20
295.762248
 11
229.268147
 21
295.762248
  0
LINE
  8
1
 62
7
  6
CONTINUOUS
 10
231.368153
 20
294.662257
 11
231.368153
 21
294.062251
  0
LINE
  8
1
 62
7
  6
CONTINUOUS
 10
234.268147
 20
294.062251
 11
235.768147
 21
294.062251
  0
LINE
  8
1
 62
7
  6
CONTINUOUS
 10
230.768147
 20
294.662257
 11
230.768147
 21
294.062251
  0
LINE
  8
1
 62
7
  6
CONTINUOUS
 10
230.768147
 20
294.662257
 11
231.368153
 21
294.662257
  0
LINE
  8
1
 62
7
  6
CONTINUOUS
 10
236.368153
 20
294.062251
 11
237.868153
 21
294.062251
  0
LINE
  8
1
 62
7
  6
CONTINUOUS
 10
235.768147
 20
294.662257
 11
236.368153
 21
294.662257
  0
LINE
  8
1
 62
7
  6
CONTINUOUS
 10
232.508168
 20
289.162257
 11
234.628163
 21
289.162257
  0
LINE
  8
1
 62
7
  6
CONTINUOUS
 10
231.368153
 20
294.062251
 11
232.868153
 21
294.062251
  0
LINE
  8
1
 62
7
  6
CONTINUOUS
 10
235.768147
 20
294.662257
 11
235.768147
 21
294.062251
  0
LINE
  8
1
 62
7
  6
CONTINUOUS
 10
234.268147
 20
294.062251
 11
234.268147
 21
290.462252
  0
LINE
  8
1
 62
7
  6
CONTINUOUS
 10
237.868153
 20
294.062251
 11
237.868153
 21
290.462252
  0
LINE
  8
1
 62
7
  6
CONTINUOUS
 10
237.508168
 20
290.462252
 11
237.868153
 21
290.462252
  0
LINE
  8
1
 62
7
  6
CONTINUOUS
 10
234.268147
 20
290.462252
 11
234.628163
 21
290.462252
  0
LINE
  8
1
 62
7
  6
CONTINUOUS
 10
261.368153
 20
294.662257
 11
261.368153
 21
294.062251
  0
LINE
  8
1
 62
7
  6
CONTINUOUS
 10
267.508168
 20
290.462252
 11
267.868153
 21
290.462252
  0
LINE
  8
1
 62
7
  6
CONTINUOUS
 10
264.268162
 20
294.062251
 11
264.268162
 21
290.462252
  0
LINE
  8
1
 62
7
  6
CONTINUOUS
 10
245.768147
 20
294.662257
 11
246.368153
 21
294.662257
  0
LINE
  8
1
 62
7
  6
CONTINUOUS
 10
252.508168
 20
289.162257
 11
254.628163
 21
289.162257
  0
LINE
  8
1
 62
7
  6
CONTINUOUS
 10
241.368153
 20
294.662257
 11
241.368153
 21
294.062251
  0
LINE
  8
1
 62
7
  6
CONTINUOUS
 10
244.268147
 20
290.462252
 11
244.628163
 21
290.462252
  0
LINE
  8
1
 62
7
  6
CONTINUOUS
 10
241.368153
 20
294.062251
 11
242.868153
 21
294.062251
  0
LINE
  8
1
 62
7
  6
CONTINUOUS
 10
244.268147
 20
294.062251
 11
244.268147
 21
290.462252
  0
LINE
  8
1
 62
7
  6
CONTINUOUS
 10
240.768147
 20
294.662257
 11
240.768147
 21
294.062251
  0
LINE
  8
1
 62
7
  6
CONTINUOUS
 10
239.268147
 20
294.062251
 11
240.768147
 21
294.062251
  0
LINE
  8
1
 62
7
  6
CONTINUOUS
 10
239.268147
 20
294.062251
 11
239.268147
 21
290.462252
  0
LINE
  8
1
 62
7
  6
CONTINUOUS
 10
240.768147
 20
294.662257
 11
241.368153
 21
294.662257
  0
LINE
  8
1
 62
7
  6
CONTINUOUS
 10
242.868153
 20
294.062251
 11
242.868153
 21
290.462252
  0
LINE
  8
1
 62
7
  6
CONTINUOUS
 10
242.868153
 20
296.062251
 11
242.868153
 21
295.762248
  0
LINE
  8
1
 62
7
  6
CONTINUOUS
 10
239.268147
 20
290.462252
 11
239.628163
 21
290.462252
  0
LINE
  8
1
 62
7
  6
CONTINUOUS
 10
247.868153
 20
294.062251
 11
247.868153
 21
290.462252
  0
LINE
  8
1
 62
7
  6
CONTINUOUS
 10
262.508168
 20
289.162257
 11
264.623173
 21
289.162257
  0
LINE
  8
1
 62
7
  6
CONTINUOUS
 10
244.268147
 20
296.062251
 11
244.268147
 21
295.762248
  0
LINE
  8
1
 62
7
  6
CONTINUOUS
 10
252.868153
 20
296.062251
 11
252.868153
 21
295.762248
  0
LINE
  8
1
 62
7
  6
CONTINUOUS
 10
247.508168
 20
289.162257
 11
249.628163
 21
289.162257
  0
LINE
  8
1
 62
7
  6
CONTINUOUS
 10
239.268147
 20
296.062251
 11
239.268147
 21
295.762248
  0
LINE
  8
1
 62
7
  6
CONTINUOUS
 10
244.268147
 20
296.062251
 11
247.868153
 21
296.062251
  0
LINE
  8
1
 62
7
  6
CONTINUOUS
 10
239.268147
 20
296.062251
 11
242.868153
 21
296.062251
  0
LINE
  8
1
 62
7
  6
CONTINUOUS
 10
247.868153
 20
296.062251
 11
247.868153
 21
295.762248
  0
LINE
  8
1
 62
7
  6
CONTINUOUS
 10
265.768162
 20
294.662257
 11
266.368153
 21
294.662257
  0
LINE
  8
1
 62
7
  6
CONTINUOUS
 10
265.768162
 20
294.662257
 11
265.768162
 21
294.062251
  0
LINE
  8
1
 62
7
  6
CONTINUOUS
 10
264.268162
 20
294.062251
 11
265.768162
 21
294.062251
  0
LINE
  8
1
 62
7
  6
CONTINUOUS
 10
266.368153
 20
294.662257
 11
266.368153
 21
294.062251
  0
LINE
  8
1
 62
7
  6
CONTINUOUS
 10
266.368153
 20
294.062251
 11
267.868153
 21
294.062251
  0
LINE
  8
1
 62
7
  6
CONTINUOUS
 10
259.268162
 20
294.062251
 11
259.268162
 21
290.462252
  0
LINE
  8
1
 62
7
  6
CONTINUOUS
 10
260.768162
 20
294.662257
 11
261.368153
 21
294.662257
  0
LINE
  8
1
 62
7
  6
CONTINUOUS
 10
264.268162
 20
290.462252
 11
264.628163
 21
290.462252
  0
LINE
  8
1
 62
7
  6
CONTINUOUS
 10
260.768162
 20
294.662257
 11
260.768162
 21
294.062251
  0
LINE
  8
1
 62
7
  6
CONTINUOUS
 10
267.868153
 20
294.062251
 11
267.868153
 21
290.462252
  0
LINE
  8
1
 62
7
  6
CONTINUOUS
 10
237.508168
 20
289.162257
 11
239.628163
 21
289.162257
  0
LINE
  8
1
 62
7
  6
CONTINUOUS
 10
254.268162
 20
294.062251
 11
254.268162
 21
290.462252
  0
LINE
  8
1
 62
7
  6
CONTINUOUS
 10
259.268162
 20
294.062251
 11
260.768162
 21
294.062251
  0
LINE
  8
1
 62
7
  6
CONTINUOUS
 10
261.368153
 20
294.062251
 11
262.868153
 21
294.062251
  0
LINE
  8
1
 62
7
  6
CONTINUOUS
 10
255.768162
 20
294.662257
 11
256.368153
 21
294.662257
  0
LINE
  8
1
 62
7
  6
CONTINUOUS
 10
262.868153
 20
294.062251
 11
262.868153
 21
290.462252
  0
LINE
  8
1
 62
7
  6
CONTINUOUS
 10
256.368153
 20
294.662257
 11
256.368153
 21
294.062251
  0
LINE
  8
1
 62
7
  6
CONTINUOUS
 10
259.268162
 20
290.462252
 11
259.628163
 21
290.462252
  0
LINE
  8
1
 62
7
  6
CONTINUOUS
 10
255.768162
 20
294.662257
 11
255.768162
 21
294.062251
  0
LINE
  8
1
 62
7
  6
CONTINUOUS
 10
242.508168
 20
289.162257
 11
244.628163
 21
289.162257
  0
LINE
  8
1
 62
7
  6
CONTINUOUS
 10
257.868153
 20
294.062251
 11
257.868153
 21
290.459536
  0
LINE
  8
1
 62
7
  6
CONTINUOUS
 10
254.268162
 20
294.062251
 11
255.768162
 21
294.062251
  0
LINE
  8
1
 62
7
  6
CONTINUOUS
 10
254.268162
 20
290.462252
 11
254.628163
 21
290.462252
  0
LINE
  8
1
 62
7
  6
CONTINUOUS
 10
250.768162
 20
294.662257
 11
251.368153
 21
294.662257
  0
LINE
  8
1
 62
7
  6
CONTINUOUS
 10
256.368153
 20
294.062251
 11
257.868153
 21
294.062251
  0
LINE
  8
1
 62
7
  6
CONTINUOUS
 10
249.268147
 20
294.062251
 11
249.268147
 21
290.462252
  0
LINE
  8
1
 62
7
  6
CONTINUOUS
 10
252.868153
 20
294.062251
 11
252.868153
 21
290.462252
  0
LINE
  8
1
 62
7
  6
CONTINUOUS
 10
257.508168
 20
289.162257
 11
259.628163
 21
289.162257
  0
LINE
  8
1
 62
7
  6
CONTINUOUS
 10
249.268147
 20
290.462252
 11
249.628163
 21
290.462252
  0
LINE
  8
1
 62
7
  6
CONTINUOUS
 10
250.768162
 20
294.662257
 11
250.768162
 21
294.062251
  0
LINE
  8
1
 62
7
  6
CONTINUOUS
 10
249.268147
 20
294.062251
 11
250.768162
 21
294.062251
  0
LINE
  8
1
 62
7
  6
CONTINUOUS
 10
246.368153
 20
294.662257
 11
246.368153
 21
294.062251
  0
LINE
  8
1
 62
7
  6
CONTINUOUS
 10
244.268147
 20
294.062251
 11
245.768147
 21
294.062251
  0
LINE
  8
1
 62
7
  6
CONTINUOUS
 10
251.368153
 20
294.062251
 11
252.868153
 21
294.062251
  0
LINE
  8
1
 62
7
  6
CONTINUOUS
 10
246.368153
 20
294.062251
 11
247.868153
 21
294.062251
  0
LINE
  8
1
 62
7
  6
CONTINUOUS
 10
257.508168
 20
285.862254
 11
259.628163
 21
285.862254
  0
LINE
  8
1
 62
7
  6
CONTINUOUS
 10
252.508168
 20
285.862254
 11
254.628163
 21
285.862254
  0
LINE
  8
1
 62
7
  6
CONTINUOUS
 10
242.508168
 20
285.862254
 11
244.628163
 21
285.862254
  0
LINE
  8
1
 62
7
  6
CONTINUOUS
 10
245.768147
 20
294.662257
 11
245.768147
 21
294.062251
  0
LINE
  8
1
 62
7
  6
CONTINUOUS
 10
237.508168
 20
285.862254
 11
239.628163
 21
285.862254
  0
LINE
  8
1
 62
7
  6
CONTINUOUS
 10
267.508168
 20
285.862254
 11
374.468129
 21
285.862254
  0
LINE
  8
1
 62
7
  6
CONTINUOUS
 10
232.508168
 20
285.862254
 11
234.628163
 21
285.862254
  0
LINE
  8
1
 62
7
  6
CONTINUOUS
 10
247.508168
 20
285.862254
 11
249.628163
 21
285.862254
  0
LINE
  8
1
 62
7
  6
CONTINUOUS
 10
290.468159
 20
319.862254
 11
290.468159
 21
285.862254
  0
LINE
  8
1
 62
7
  6
CONTINUOUS
 10
374.468129
 20
391.862254
 11
374.468129
 21
285.862254
  0
LINE
  8
1
 62
7
  6
CONTINUOUS
 10
290.468159
 20
391.862254
 11
290.468159
 21
357.862254
  0
LINE
  8
1
 62
7
  6
CONTINUOUS
 10
206.468159
 20
285.862254
 11
229.628163
 21
285.862254
  0
LINE
  8
1
 62
7
  6
CONTINUOUS
 10
206.468159
 20
391.862254
 11
374.468129
 21
391.862254
  0
LINE
  8
1
 62
7
  6
CONTINUOUS
 10
206.468159
 20
391.862254
 11
206.468159
 21
285.862254
  0
LINE
  8
1
 62
7
  6
CONTINUOUS
 10
206.468159
 20
431.862254
 11
290.468159
 21
431.862254
  0
LINE
  8
1
 62
7
  6
CONTINUOUS
 10
206.468159
 20
435.862254
 11
206.468159
 21
395.862254
  0
LINE
  8
1
 62
7
  6
CONTINUOUS
 10
290.468159
 20
435.862254
 11
290.468159
 21
395.862254
  0
LINE
  8
1
 62
7
  6
CONTINUOUS
 10
206.468159
 20
431.862254
 11
211.104603
 21
433.104585
  0
LINE
  8
1
 62
7
  6
CONTINUOUS
 10
206.468159
 20
431.862254
 11
211.104603
 21
430.619922
  0
LINE
  8
1
 62
7
  6
CONTINUOUS
 10
290.468159
 20
431.862254
 11
285.831715
 21
430.619922
  0
LINE
  8
1
 62
7
  6
CONTINUOUS
 10
290.468159
 20
431.862254
 11
285.831715
 21
433.104585
  0
TEXT
  8
1
 62
7
  6
CONTINUOUS
 10
245.268159
 20
432.862254
 40
6.000000
 41
0.566667
  1
42
  7
KANJI
 50
0.000000
 51
0.000000
  0
LINE
  8
1
 62
7
  6
CONTINUOUS
 10
290.468159
 20
431.862254
 11
374.468129
 21
431.862254
  0
LINE
  8
1
 62
7
  6
CONTINUOUS
 10
290.468159
 20
435.862254
 11
290.468159
 21
395.862254
  0
LINE
  8
1
 62
7
  6
CONTINUOUS
 10
374.468129
 20
435.862254
 11
374.468129
 21
395.862254
  0
LINE
  8
1
 62
7
  6
CONTINUOUS
 10
290.468159
 20
431.862254
 11
295.104603
 21
433.104585
  0
LINE
  8
1
 62
7
  6
CONTINUOUS
 10
290.468159
 20
431.862254
 11
295.104603
 21
430.619922
  0
LINE
  8
1
 62
7
  6
CONTINUOUS
 10
374.468129
 20
431.862254
 11
369.831685
 21
430.619922
  0
LINE
  8
1
 62
7
  6
CONTINUOUS
 10
374.468129
 20
431.862254
 11
369.831685
 21
433.104585
  0
TEXT
  8
1
 62
7
  6
CONTINUOUS
 10
329.268144
 20
432.862254
 40
6.000000
 41
0.566667
  1
42
  7
KANJI
 50
0.000000
 51
0.000000
  0
LINE
  8
1
 62
7
  6
CONTINUOUS
 10
228.911955
 20
292.717598
 11
223.557355
 21
292.717598
  0
LINE
  8
1
 62
7
  6
CONTINUOUS
 10
267.868153
 20
292.717598
 11
274.343755
 21
292.717598
  0
LINE
  8
1
 62
7
  6
CONTINUOUS
 10
387.097344
 20
153.265874
 11
521.667439
 21
153.265874
  0
LINE
  8
1
 62
7
  6
CONTINUOUS
 10
387.097344
 20
149.265874
 11
387.097344
 21
164.665883
  0
LINE
  8
1
 62
7
  6
CONTINUOUS
 10
521.667439
 20
149.265874
 11
521.667439
 21
169.865880
  0
LINE
  8
1
 62
7
  6
CONTINUOUS
 10
387.097344
 20
153.265874
 11
391.733788
 21
154.508205
  0
LINE
  8
1
 62
7
  6
CONTINUOUS
 10
387.097344
 20
153.265874
 11
391.733788
 21
152.023542
  0
LINE
  8
1
 62
7
  6
CONTINUOUS
 10
521.667439
 20
153.265874
 11
517.030995
 21
152.023542
  0
LINE
  8
1
 62
7
  6
CONTINUOUS
 10
521.667439
 20
153.265874
 11
517.030995
 21
154.508205
  0
TEXT
  8
1
 62
7
  6
CONTINUOUS
 10
442.882392
 20
154.265874
 40
6.000000
 41
0.639785
  1
150±10
  7
KANJI
 50
0.000000
 51
0.000000
  0
LINE
  8
1
 62
7
  6
CONTINUOUS
 10
324.092943
 20
167.637198
 11
324.007397
 21
149.125074
  0
LINE
  8
1
 62
7
  6
CONTINUOUS
 10
226.247755
 20
292.717598
 11
227.278504
 21
288.852684
  0
LINE
  8
1
 62
7
  6
CONTINUOUS
 10
226.247755
 20
292.717598
 11
225.207953
 21
288.855110
  0
LINE
  8
1
 62
7
  6
CONTINUOUS
 10
324.007397
 20
153.265874
 11
320.143694
 21
152.230598
  0
LINE
  8
1
 62
7
  6
CONTINUOUS
 10
324.007397
 20
153.265874
 11
320.143694
 21
154.301150
  0
LINE
  8
1
 62
7
  6
CONTINUOUS
 10
226.247755
 20
292.717598
 11
226.091397
 21
159.265874
  0
LINE
  8
1
 62
7
  6
CONTINUOUS
 10
232.091397
 20
153.265874
 11
324.007397
 21
153.265874
  0
ARC
  8
1
 62
7
  6
CONTINUOUS
 10
232.091397
 20
159.265874
 40
6.000000
 50
180.000000
 51
-90.000000
  0
TEXT
  8
1
 62
7
  6
CONTINUOUS
 10
266.952797
 20
154.885274
 40
6.000000
 41
0.639785
  1
150±10
  7
KANJI
 50
0.000000
 51
0.000000
  0
LINE
  8
1
 62
7
  6
CONTINUOUS
 10
384.386543
 20
222.729798
 11
384.711797
 21
245.384857
  0
LINE
  8
1
 62
7
  6
CONTINUOUS
 10
271.880555
 20
292.717598
 11
272.938230
 21
288.859966
  0
LINE
  8
1
 62
7
  6
CONTINUOUS
 10
271.880555
 20
292.717598
 11
270.867713
 21
288.847953
  0
LINE
  8
1
 62
7
  6
CONTINUOUS
 10
384.604797
 20
242.862257
 11
380.741094
 21
241.826981
  0
LINE
  8
1
 62
7
  6
CONTINUOUS
 10
384.604797
 20
242.862257
 11
380.741094
 21
243.897534
  0
LINE
  8
1
 62
7
  6
CONTINUOUS
 10
271.880555
 20
292.717598
 11
272.134997
 21
248.862257
  0
LINE
  8
1
 62
7
  6
CONTINUOUS
 10
278.134997
 20
242.862257
 11
384.604797
 21
242.862257
  0
ARC
  8
1
 62
7
  6
CONTINUOUS
 10
278.134997
 20
248.862257
 40
6.000000
 50
-180.000000
 51
-90.000000
  0
TEXT
  8
1
 62
7
  6
CONTINUOUS
 10
308.153397
 20
242.862257
 40
6.000000
 41
0.639785
  1
200±10
  7
KANJI
 50
0.000000
 51
0.000000
  0
LINE
  8
1
 62
7
  6
CONTINUOUS
 10
300.465604
 20
411.862254
 11
364.468555
 21
411.862254
  0
LINE
  8
1
 62
7
  6
CONTINUOUS
 10
300.465604
 20
415.862254
 11
300.465604
 21
391.224347
  0
LINE
  8
1
 62
7
  6
CONTINUOUS
 10
364.468555
 20
415.862254
 11
364.468555
 21
391.224347
  0
LINE
  8
1
 62
7
  6
CONTINUOUS
 10
300.465604
 20
411.862254
 11
305.102048
 21
413.104585
  0
LINE
  8
1
 62
7
  6
CONTINUOUS
 10
300.465604
 20
411.862254
 11
305.102048
 21
410.619922
  0
LINE
  8
1
 62
7
  6
CONTINUOUS
 10
364.468555
 20
411.862254
 11
359.832111
 21
410.619922
  0
LINE
  8
1
 62
7
  6
CONTINUOUS
 10
364.468555
 20
411.862254
 11
359.832111
 21
413.104585
  0
TEXT
  8
1
 62
7
  6
CONTINUOUS
 10
329.267080
 20
412.862254
 40
6.000000
 41
0.566667
  1
32
  7
KANJI
 50
0.000000
 51
0.000000
  0
LINE
  8
1
 62
7
  6
CONTINUOUS
 10
216.462355
 20
411.862254
 11
280.467355
 21
411.862254
  0
LINE
  8
1
 62
7
  6
CONTINUOUS
 10
216.462355
 20
415.862254
 11
216.462355
 21
393.604798
  0
LINE
  8
1
 62
7
  6
CONTINUOUS
 10
280.467355
 20
415.862254
 11
280.467355
 21
393.604798
  0
LINE
  8
1
 62
7
  6
CONTINUOUS
 10
216.462355
 20
411.862254
 11
221.098799
 21
413.104585
  0
LINE
  8
1
 62
7
  6
CONTINUOUS
 10
216.462355
 20
411.862254
 11
221.098799
 21
410.619922
  0
LINE
  8
1
 62
7
  6
CONTINUOUS
 10
280.467355
 20
411.862254
 11
275.830911
 21
410.619922
  0
LINE
  8
1
 62
7
  6
CONTINUOUS
 10
280.467355
 20
411.862254
 11
275.830911
 21
413.104585
  0
TEXT
  8
1
 62
7
  6
CONTINUOUS
 10
245.264855
 20
412.862254
 40
6.000000
 41
0.566667
  1
32
  7
KANJI
 50
0.000000
 51
0.000000
  0
LINE
  8
1
 62
7
  6
DASHDOT
 10
272.697355
 20
295.864998
 11
289.498755
 21
295.864998
  0
LINE
  8
1
 62
7
  6
DASHDOT
 10
280.467355
 20
287.680798
 11
280.467355
 21
303.601598
  0
LINE
  8
1
 62
7
  6
DASHDOT
 10
208.692355
 20
295.864998
 11
225.493755
 21
295.864998
  0
LINE
  8
1
 62
7
  6
DASHDOT
 10
216.462355
 20
287.680798
 11
216.462355
 21
303.601598
  0
LINE
  8
1
 62
7
  6
DASHDOT
 10
208.454355
 20
381.868198
 11
225.493755
 21
381.868198
  0
LINE
  8
1
 62
7
  6
DASHDOT
 10
216.462355
 20
373.683998
 11
216.462355
 21
389.604798
  0
LINE
  8
1
 62
7
  6
DASHDOT
 10
280.467355
 20
373.683998
 11
280.467355
 21
389.604798
  0
LINE
  8
1
 62
7
  6
DASHDOT
 10
300.465604
 20
376.202169
 11
300.465604
 21
387.224347
  0
LINE
  8
1
 62
7
  6
DASHDOT
 10
300.468159
 20
290.198969
 11
300.468159
 21
301.221147
  0
LINE
  8
1
 62
7
  6
DASHDOT
 10
295.088887
 20
295.864998
 11
306.720716
 21
295.864998
  0
LINE
  8
1
 62
7
  6
DASHDOT
 10
364.468555
 20
376.202169
 11
364.468555
 21
387.224347
  0
LINE
  8
1
 62
7
  6
DASHDOT
 10
359.089283
 20
381.868198
 11
370.721112
 21
381.868198
  0
LINE
  8
1
 62
7
  6
DASHDOT
 10
364.468555
 20
290.198969
 11
364.468555
 21
301.221147
  0
LINE
  8
1
 62
7
  6
DASHDOT
 10
359.089283
 20
295.864998
 11
370.721112
 21
295.864998
  0
LINE
  8
1
 62
7
  6
DASHDOT
 10
272.697355
 20
381.868198
 11
289.498755
 21
381.868198
  0
LINE
  8
1
 62
7
  6
DASHDOT
 10
295.086332
 20
381.868198
 11
306.216804
 21
381.868198
  0
TEXT
  8
15
 62
96
  6
DIVIDE
 10
690.194641
 20
513.642589
 40
6.001769
 41
0.735294
  1
DC24Ｖ±10％　制御装置より供給
  7
KANJI
 50
0.000000
 51
0.000000
  0
TEXT
  8
15
 62
96
  6
DIVIDE
 10
726.201246
 20
480.569715
 40
6.001769
 41
0.681818
  1
約40ｇ
  7
KANJI
 50
0.000000
 51
0.000000
  0
TEXT
  8
15
 62
96
  6
CONTINUOUS
 10
653.640524
 20
458.614313
 40
6.001769
 41
0.730769
  1
外部入力　：接点容量　DC24Ｖ　10mA以上
  7
KANJI
 50
0.000000
 51
0.000000
  0
TEXT
  8
15
 62
96
  6
CONTINUOUS
 10
700.421003
 20
447.623125
 40
6.001769
 41
0.833333
  1
無電圧ａ接点　連続
  7
KANJI
 50
0.000000
 51
0.000000
  0
TEXT
  8
15
 62
96
  6
CONTINUOUS
 10
386.140130
 20
37.869057
 40
6.000000
 41
0.933892
  1
*　記載されている会社名、製品名は、登録商標または商標です。
  7
KANJI
 50
0.000000
 51
0.000000
  0
TEXT
  8
15
 62
96
  6
DIVIDE
 10
724.704816
 20
502.639345
 40
6.001769
 41
0.648148
  1
CPU制御
  7
KANJI
 50
0.000000
 51
0.000000
  0
LINE
  8
1
 62
7
  6
CONTINUOUS
 10
394.468129
 20
381.868198
 11
394.468129
 21
295.864998
  0
LINE
  8
1
 62
7
  6
CONTINUOUS
 10
398.468129
 20
381.868198
 11
374.721112
 21
381.868198
  0
LINE
  8
1
 62
7
  6
CONTINUOUS
 10
398.468129
 20
295.864998
 11
374.721112
 21
295.864998
  0
LINE
  8
1
 62
7
  6
CONTINUOUS
 10
394.468129
 20
381.868198
 11
395.710460
 21
377.231754
  0
LINE
  8
1
 62
7
  6
CONTINUOUS
 10
394.468129
 20
381.868198
 11
393.225797
 21
377.231754
  0
LINE
  8
1
 62
7
  6
CONTINUOUS
 10
394.468129
 20
295.864998
 11
393.225797
 21
300.501442
  0
LINE
  8
1
 62
7
  6
CONTINUOUS
 10
394.468129
 20
295.864998
 11
395.710460
 21
300.501442
  0
TEXT
  8
1
 62
7
  6
CONTINUOUS
 10
393.468129
 20
335.666598
 40
6.000000
 41
0.566667
  1
43
  7
KANJI
 50
90.000000
 51
0.000000
  0
LINE
  8
1
 62
7
  6
CONTINUOUS
 10
414.468129
 20
285.862254
 11
414.468129
 21
391.862254
  0
LINE
  8
1
 62
7
  6
CONTINUOUS
 10
418.468129
 20
285.862254
 11
378.468129
 21
285.862254
  0
LINE
  8
1
 62
7
  6
CONTINUOUS
 10
418.468129
 20
391.862254
 11
378.468129
 21
391.862254
  0
LINE
  8
1
 62
7
  6
CONTINUOUS
 10
414.468129
 20
285.862254
 11
413.225797
 21
290.498698
  0
LINE
  8
1
 62
7
  6
CONTINUOUS
 10
414.468129
 20
285.862254
 11
415.710460
 21
290.498698
  0
LINE
  8
1
 62
7
  6
CONTINUOUS
 10
414.468129
 20
391.862254
 11
415.710460
 21
387.225810
  0
LINE
  8
1
 62
7
  6
CONTINUOUS
 10
414.468129
 20
391.862254
 11
413.225797
 21
387.225810
  0
TEXT
  8
1
 62
7
  6
CONTINUOUS
 10
413.468129
 20
335.662254
 40
6.000000
 41
0.566667
  1
53
  7
KANJI
 50
90.000000
 51
0.000000
  0
LINE
  8
15
 62
96
  6
CONTINUOUS
 10
800.227600
 20
29.999354
 11
800.227600
 21
544.150938
  0
TEXT
  8
15
 62
96
  6
CONTINUOUS
 10
639.291424
 20
87.887221
 40
10.002949
 41
0.900000
  1
デジタルテンキーＩ／Ｆユニット
  7
KANJI
 50
0.000000
 51
0.000000
  0
LINE
  8
1
 62
7
  6
DASHDOT
 10
248.468159
 20
402.717000
 11
248.468159
 21
281.773200
  0
LINE
  8
1
 62
7
  6
DASHDOT
 10
332.468129
 20
400.247000
 11
332.468129
 21
279.362400
  0
LINE
  8
1
 62
7
  6
DASHDOT
 10
197.586994
 20
338.862254
 11
383.107400
 21
338.862254
  0
TEXT
  8
15
 62
96
  6
DIVIDE
 10
696.186198
 20
469.571715
 40
6.001769
 41
0.792683
  1
０℃～40℃（結露なきこと）
  7
KANJI
 50
0.000000
 51
0.000000
  0
TEXT
  8
15
 62
96
  6
CONTINUOUS
 10
688.417465
 20
425.616637
 40
6.001769
 41
0.833333
  1
無電圧ａ接点　連続（１秒）
  7
KANJI
 50
0.000000
 51
0.000000
  0
TEXT
  8
15
 62
96
  6
CONTINUOUS
 10
653.640005
 20
436.607825
 40
6.001769
 41
0.778689
  1
外部出力　：接点容量　DC24Ｖ　１Ａ以下
  7
KANJI
 50
0.000000
 51
0.000000
  0
ARC
  8
1
 62
7
  6
CONTINUOUS
 10
298.269736
 20
172.870945
 40
17.815030
 50
134.268825
 51
148.119345
  0
ARC
  8
1
 62
7
  6
CONTINUOUS
 10
287.147829
 20
179.386979
 40
4.941185
 50
144.162546
 51
-165.966493
  0
ARC
  8
1
 62
7
  6
CONTINUOUS
 10
291.820541
 20
183.450678
 40
10.830540
 50
-150.932637
 51
-128.192370
  0
ARC
  8
1
 62
7
  6
CONTINUOUS
 10
283.383444
 20
172.072057
 40
3.353526
 50
-14.568171
 51
58.733723
  0
ARC
  8
1
 62
7
  6
CONTINUOUS
 10
278.574411
 20
175.349557
 40
9.047742
 50
-54.348729
 51
-27.095488
  0
ARC
  8
1
 62
7
  6
CONTINUOUS
 10
294.269736
 20
172.870945
 40
17.815030
 50
134.268825
 51
148.119345
  0
ARC
  8
1
 62
7
  6
CONTINUOUS
 10
283.147829
 20
179.386979
 40
4.941185
 50
144.162546
 51
-165.966493
  0
ARC
  8
1
 62
7
  6
CONTINUOUS
 10
287.820541
 20
183.450678
 40
10.830540
 50
-150.932637
 51
-128.192370
  0
ARC
  8
1
 62
7
  6
CONTINUOUS
 10
279.383444
 20
172.072057
 40
3.353526
 50
-14.568171
 51
58.733723
  0
ARC
  8
1
 62
7
  6
CONTINUOUS
 10
274.574411
 20
175.349557
 40
9.047742
 50
-54.348729
 51
-27.095488
  0
ARC
  8
1
 62
7
  6
CONTINUOUS
 10
463.123553
 20
174.783424
 40
16.269326
 50
139.361006
 51
151.508319
  0
ARC
  8
1
 62
7
  6
CONTINUOUS
 10
453.684909
 20
179.691226
 40
5.635831
 50
149.585233
 51
-175.361105
  0
ARC
  8
1
 62
7
  6
CONTINUOUS
 10
453.750282
 20
180.701533
 40
5.868818
 50
-165.533548
 51
-131.919150
  0
ARC
  8
1
 62
7
  6
CONTINUOUS
 10
447.656502
 20
173.517125
 40
3.558072
 50
-2.832277
 51
52.359498
  0
ARC
  8
1
 62
7
  6
CONTINUOUS
 10
445.781329
 20
175.644154
 40
5.897120
 50
-56.458423
 51
-22.985793
  0
ARC
  8
1
 62
7
  6
CONTINUOUS
 10
459.123553
 20
174.783424
 40
16.269326
 50
139.361006
 51
151.508319
  0
ARC
  8
1
 62
7
  6
CONTINUOUS
 10
449.684909
 20
179.691226
 40
5.635831
 50
149.585233
 51
-175.361105
  0
ARC
  8
1
 62
7
  6
CONTINUOUS
 10
449.750282
 20
180.701533
 40
5.868818
 50
-165.533548
 51
-131.919150
  0
ARC
  8
1
 62
7
  6
CONTINUOUS
 10
443.656502
 20
173.517125
 40
3.558072
 50
-2.832277
 51
52.359498
  0
ARC
  8
1
 62
7
  6
CONTINUOUS
 10
441.781329
 20
175.644154
 40
5.897120
 50
-56.458423
 51
-22.985793
  0
ARC
  8
1
 62
7
  6
CONTINUOUS
 10
323.958717
 20
207.575541
 40
24.917031
 50
134.402822
 51
150.197802
  0
ARC
  8
1
 62
7
  6
CONTINUOUS
 10
309.158009
 20
215.506128
 40
8.146032
 50
146.859739
 51
-164.877305
  0
ARC
  8
1
 62
7
  6
CONTINUOUS
 10
327.126000
 20
226.891077
 40
29.151537
 50
-152.390348
 51
-138.908097
  0
ARC
  8
1
 62
7
  6
CONTINUOUS
 10
300.702528
 20
203.874302
 40
5.890921
 50
-26.152074
 51
40.891690
  0
ARC
  8
1
 62
7
  6
CONTINUOUS
 10
289.376209
 20
209.003263
 40
18.322465
 50
-46.413680
 51
-24.937929
  0
ARC
  8
1
 62
7
  6
CONTINUOUS
 10
327.958717
 20
207.575541
 40
24.917031
 50
134.402822
 51
150.197802
  0
ARC
  8
1
 62
7
  6
CONTINUOUS
 10
313.158009
 20
215.506128
 40
8.146032
 50
146.859739
 51
-164.877305
  0
ARC
  8
1
 62
7
  6
CONTINUOUS
 10
331.126000
 20
226.891077
 40
29.151537
 50
-152.390348
 51
-138.908097
  0
ARC
  8
1
 62
7
  6
CONTINUOUS
 10
304.702528
 20
203.874302
 40
5.890921
 50
-26.152074
 51
40.891690
  0
ARC
  8
1
 62
7
  6
CONTINUOUS
 10
293.376209
 20
209.003263
 40
18.322465
 50
-46.413680
 51
-24.937929
  0
ENDSEC
  0
EOF
