  0
SECTION
  2
HEADER
  9
$ACADVER
  1
AC1003
  9
$INSBASE
 10
0.000000
 20
0.000000
  9
$EXTMIN
 10
0.000000
 20
0.000000
  9
$EXTMAX
 10
840.000000
 20
594.000000
  9
$LIMMIN
 10
0.000000
 20
0.000000
  9
$LIMMAX
 10
840.000000
 20
594.000000
  9
$VIEWCTR
 10
420.000000
 20
297.000000
  9
$VIEWSIZE
 40
594.000000
  9
$PEXTMIN
 10
0.000000
 20
0.000000
 30
0.000000
  9
$PEXTMAX
 10
420.000000
 20
297.000000
 30
0.000000
  9
$SNAPMODE
 70
     0
  9
$SNAPUNIT
 10
1.000000
 20
1.000000
  9
$SNAPBASE
 10
0.000000
 20
0.000000
  9
$SNAPANG
 50
0.000000
  9
$SNAPISOPAIR
 70
     0
  9
$SNAPSTYLE
 70
     0
  9
$GRIDMODE
 70
     0
  9
$GRIDUNIT
 10
0.000000
 20
0.000000
  9
$ORTHOMODE
 70
     0
  9
$REGENMODE
 70
     1
  9
$FILLMODE
 70
     1
  9
$QTEXTMODE
 70
     0
  9
$DRAGMODE
 70
     2
  9
$LTSCALE
 40
0.500000
  9
$OSMODE
 70
     0
  9
$ATTMODE
 70
     1
  9
$TEXTSIZE
 40
0.200000
  9
$TRACEWID
 40
0.050000
  9
$TEXTSTYLE
  7
STANDARD
  9
$CLAYER
  8
0
  9
$CELTYPE
  6
BYLAYER
  9
$CECOLOR
 62
   256
  9
$DIMSCALE
 40
1.000000
  9
$DIMASZ
 40
1.000000
  9
$DIMEXO
 40
0.000000
  9
$DIMDLI
 40
0.500000
  9
$DIMRND
 40
0.000000
  9
$DIMDLE
 40
0.000000
  9
$DIMEXE
 40
0.000000
  9
$DIMTP
 40
0.000000
  9
$DIMTM
 40
0.000000
  9
$DIMTXT
 40
0.180000
  9
$DIMCEN
 40
0.000000
  9
$DIMTSZ
 40
0.000000
  9
$DIMTOL
 70
     0
  9
$DIMLIM
 70
     0
  9
$DIMTIH
 70
     1
  9
$DIMTOH
 70
     1
  9
$DIMSE1
 70
     0
  9
$DIMSE2
 70
     0
  9
$DIMTAD
 70
     0
  9
$DIMZIN
 70
     0
  9
$DIMBLK
  1

  9
$DIMASO
 70
     0
  9
$DIMSHO
 70
     0
  9
$DIMPOST
  1

  9
$DIMAPOST
  1

  9
$DIMALT
 70
     0
  9
$DIMALTD
 70
     0
  9
$DIMALTF
 40
25.400000
  9
$DIMLFAC
 40
1.000000
  9
$DIMTOFL
 70
     0
  9
$DIMTVP
 40
0.000000
  9
$DIMTIX
 70
     0
  9
$DIMSOXD
 70
     0
  9
$DIMSAH
 70
     0
  9
$DIMBLKL
  1

  9
$DIMBLKR
  1

  9
$LUNITS
 70
     2
  9
$LUPREC
 70
     2
  9
$AXISMODE
 70
     0
  9
$AXISUNIT
 10
1.000000
 20
1.000000
  9
$SKETCHINC
 40
0.000000
  9
$FILLETRAD
 40
0.000000
  9
$AUNITS
 70
     1
  9
$AUPREC
 70
     2
  9
$MENU
  1
ACAD
  9
$ELEVATION
 40
0.000000
  9
$THICKNESS
 40
0.000000
  9
$VIEWDIR
 10
0.000000
 20
0.000000
 30
1.000000
  9
$LIMCHECK
 70
     1
  9
$BLIPMODE
 70
     1
  9
$CHAMFERA
 40
0.000000
  9
$CHAMFERB
 40
0.000000
  9
$FASTZOOM
 70
     1
  9
$SKPOLY
 70
     0
  9
$TDCREATE
 40
0.000000
  9
$TDUPDATE
 40
0.000000
  9
$TDINDWG
 40
0.000000
  9
$TDUSRTIMER
 40
0.000000
  9
$USRTIMER
 70
     1
  9
$ANGBASE
 50
0.000000
  9
$ANGDIR
 70
     0
  9
$PDMODE
 70
     0
  9
$PDSIZE
 40
0.000000
  9
$PLINEWID
 40
0.000000
  9
$COORDS
 70
     2
  9
$USERI1
 70
     0
  9
$USERI2
 70
     0
  9
$USERI3
 70
     0
  9
$USERI4
 70
     0
  9
$USERI5
 70
     0
  9
$USERR1
 40
0.000000
  9
$USERR2
 40
0.000000
  9
$USERR3
 40
0.000000
  9
$USERR4
 40
0.000000
  9
$USERR5
 40
0.000000
  0
ENDSEC
  0
SECTION
  2
TABLES
  0
TABLE
  2
LTYPE
 70
     5
  0
LTYPE
  2
CONTINUOUS
 70
    64
  3
Solid line
 72
    65
 73
     0
 40
0.0
  0
LTYPE
  2
HIDDEN
 70
    64
  3
------------------------
 72
    65
 73
     2
 40
12.6
 49
8.4
 49
-4.2
  0
LTYPE
  2
DOT
 70
    64
  3
････････････････････････
 72
    65
 73
     2
 40
8.0
 49
6.0
 49
-2.0
  0
LTYPE
  2
DASHDOT
 70
    64
  3
--･--･--･--･--･--･--･--
 72
    65
 73
     4
 40
50.5
 49
30.0
 49
-9.0
 49
2.5
 49
-9.0
  0
LTYPE
  2
DIVIDE
 70
    64
  3
--･･--･･--･･--･･--･･--
 72
    65
 73
     6
 40
58.0
 49
30.0
 49
-9.0
 49
2.5
 49
-5.0
 49
2.5
 49
-9.0
  0
ENDTAB
  0
TABLE
  2
LAYER
 70
2
  0
LAYER
  2
1
 70
64
 62
7
  6
CONTINUOUS
  0
LAYER
  2
15
 70
64
 62
96
  6
CONTINUOUS
  0
ENDTAB
  0
TABLE
  2
STYLE
 70
     2
  0
STYLE
  2
STANDARD
 70
    64
 40
0.0
 41
1.0
 50
0.0
 71
     0
 42
0.2
  3
TXT
  4

  0
STYLE
  2
KANJI
 70
    64
 40
0.0
 41
1.0
 50
0.0
 71
     0
 42
0.2
  3
TXT
  4
BIGFONT
  0
ENDTAB
  0
TABLE
  2
VIEW
 70
     0
  0
ENDTAB
  0
ENDSEC
  0
SECTION
  2
BLOCKS
  0
ENDSEC
  0
SECTION
  2
ENTITIES
  0
LINE
  8
15
 62
96
  6
CONTINUOUS
 10
30.000000
 20
544.151584
 11
30.000000
 21
30.000000
  0
LINE
  8
15
 62
96
  6
CONTINUOUS
 10
30.000000
 20
30.000000
 11
800.227081
 21
30.000000
  0
LINE
  8
15
 62
96
  6
CONTINUOUS
 10
728.879008
 20
41.403554
 11
703.946332
 21
41.403554
  0
TEXT
  8
15
 62
96
  6
CONTINUOUS
 10
668.409370
 20
39.382282
 40
3.601062
 41
1.018519
  1
出入管理システム
  7
KANJI
 50
0.000000
 51
0.000000
  0
TEXT
  8
15
 62
96
  6
CONTINUOUS
 10
668.550527
 20
31.618634
 40
7.202123
 41
1.782407
  1
株式会社
  7
KANJI
 50
0.000000
 51
0.000000
  0
LINE
  8
15
 62
96
  6
CONTINUOUS
 10
628.756797
 20
31.757640
 11
635.092369
 21
31.757640
  0
LINE
  8
15
 62
96
  6
CONTINUOUS
 10
666.038375
 20
39.457096
 11
666.038375
 21
41.888499
  0
LINE
  8
15
 62
96
  6
CONTINUOUS
 10
663.404362
 20
39.457096
 11
666.038375
 21
39.457096
  0
LINE
  8
15
 62
96
  6
CONTINUOUS
 10
663.404362
 20
31.757640
 11
663.404362
 21
39.457096
  0
LINE
  8
15
 62
96
  6
CONTINUOUS
 10
660.567717
 20
31.757640
 11
663.404362
 21
31.757640
  0
LINE
  8
15
 62
96
  6
CONTINUOUS
 10
658.863116
 20
31.757640
 11
655.299669
 21
31.757640
  0
LINE
  8
15
 62
96
  6
CONTINUOUS
 10
640.508608
 20
31.757640
 11
649.221143
 21
31.757640
  0
LINE
  8
15
 62
96
  6
CONTINUOUS
 10
640.508608
 20
36.012600
 11
640.508608
 21
31.757640
  0
LINE
  8
15
 62
96
  6
CONTINUOUS
 10
635.092369
 20
31.757640
 11
644.966187
 21
41.533696
  0
LINE
  8
15
 62
96
  6
CONTINUOUS
 10
644.966187
 20
41.533696
 11
644.966187
 21
36.012600
  0
LINE
  8
15
 62
96
  6
CONTINUOUS
 10
644.966187
 20
36.012600
 11
640.508608
 21
36.012600
  0
LINE
  8
15
 62
96
  6
CONTINUOUS
 10
649.221143
 20
37.430920
 11
655.299669
 21
31.757640
  0
ARC
  8
15
 62
96
  6
CONTINUOUS
 10
654.083963
 20
38.444008
 40
1.013088
 50
-90.000000
 51
90.000000
  0
LINE
  8
15
 62
96
  6
CONTINUOUS
 10
649.221143
 20
37.430920
 11
654.083963
 21
37.430920
  0
LINE
  8
15
 62
96
  6
CONTINUOUS
 10
650.031617
 20
39.457096
 11
654.083963
 21
39.457096
  0
LINE
  8
15
 62
96
  6
CONTINUOUS
 10
650.031617
 20
41.888499
 11
650.031617
 21
39.457096
  0
LINE
  8
15
 62
96
  6
CONTINUOUS
 10
650.031617
 20
41.888499
 11
654.851778
 21
41.888499
  0
ARC
  8
15
 62
96
  6
CONTINUOUS
 10
654.467866
 20
38.444008
 40
3.465820
 50
-76.055153
 51
83.640296
  0
LINE
  8
15
 62
96
  6
CONTINUOUS
 10
655.299669
 20
35.083527
 11
658.863116
 21
31.757640
  0
LINE
  8
15
 62
96
  6
CONTINUOUS
 10
666.038375
 20
41.888499
 11
657.933686
 21
41.888499
  0
LINE
  8
15
 62
96
  6
CONTINUOUS
 10
657.933686
 20
41.888499
 11
657.933686
 21
39.457096
  0
LINE
  8
15
 62
96
  6
CONTINUOUS
 10
657.933686
 20
39.457096
 11
660.567717
 21
39.457096
  0
LINE
  8
15
 62
96
  6
CONTINUOUS
 10
660.567717
 20
39.457096
 11
660.567717
 21
31.757640
  0
TEXT
  8
15
 62
96
  6
CONTINUOUS
 10
621.036305
 20
95.928688
 40
5.001474
 41
0.900000
  1
製品名
  7
KANJI
 50
0.000000
 51
0.000000
  0
LINE
  8
15
 62
96
  6
CONTINUOUS
 10
620.173997
 20
30.000000
 11
620.173997
 21
120.026556
  0
LINE
  8
15
 62
96
  6
CONTINUOUS
 10
620.173997
 20
102.021247
 11
800.227081
 21
102.021247
  0
LINE
  8
15
 62
96
  6
CONTINUOUS
 10
620.173997
 20
102.021234
 11
800.227081
 21
102.021247
  0
LINE
  8
15
 62
96
  6
CONTINUOUS
 10
800.227081
 20
54.007092
 11
620.173997
 21
54.007078
  0
TEXT
  8
15
 62
96
  6
CONTINUOUS
 10
621.665981
 20
78.177051
 40
5.001474
 41
0.900000
  1
縮尺（Ａ３）
  7
KANJI
 50
0.000000
 51
0.000000
  0
LINE
  8
15
 62
96
  6
CONTINUOUS
 10
650.182845
 20
66.010619
 11
650.182845
 21
54.007080
  0
LINE
  8
15
 62
96
  6
CONTINUOUS
 10
649.221143
 20
31.757640
 11
649.221143
 21
52.019363
  0
LINE
  8
15
 62
96
  6
CONTINUOUS
 10
649.221143
 20
52.019363
 11
628.756797
 21
31.757640
  0
LINE
  8
15
 62
96
  6
CONTINUOUS
 10
648.687832
 20
51.491333
 11
649.221143
 21
51.491333
  0
TEXT
  8
15
 62
96
  6
CONTINUOUS
 10
733.224966
 20
30.773985
 40
20.005898
 41
0.833333
  1
アート
  7
KANJI
 50
0.000000
 51
0.000000
  0
TEXT
  8
15
 62
96
  6
CONTINUOUS
 10
624.450470
 20
57.026766
 40
5.001474
 41
0.900000
  1
図面番号
  7
KANJI
 50
0.000000
 51
0.000000
  0
TEXT
  8
15
 62
96
  6
CONTINUOUS
 10
752.320241
 20
77.711739
 40
5.001474
 41
0.900000
  1
作図
  7
KANJI
 50
0.000000
 51
0.000000
  0
LINE
  8
15
 62
96
  6
CONTINUOUS
 10
650.182845
 20
84.015925
 11
650.182845
 21
66.010619
  0
LINE
  8
15
 62
96
  6
CONTINUOUS
 10
700.197590
 20
84.015925
 11
700.197590
 21
66.010623
  0
LINE
  8
15
 62
96
  6
CONTINUOUS
 10
750.212336
 20
84.015925
 11
750.212336
 21
66.010627
  0
LINE
  8
15
 62
96
  6
CONTINUOUS
 10
620.173997
 20
533.148340
 11
800.227081
 21
533.148340
  0
LINE
  8
15
 62
96
  6
CONTINUOUS
 10
620.173997
 20
522.145096
 11
800.227081
 21
522.145096
  0
LINE
  8
15
 62
96
  6
CONTINUOUS
 10
620.173997
 20
544.151584
 11
620.173997
 21
145.033928
  0
LINE
  8
15
 62
96
  6
CONTINUOUS
 10
620.173997
 20
120.026556
 11
620.173997
 21
145.033928
  0
TEXT
  8
15
 62
96
  6
DIVIDE
 10
630.176946
 20
535.649077
 40
6.001769
 41
0.833333
  1
商品コード
  7
KANJI
 50
0.000000
 51
0.000000
  0
TEXT
  8
15
 62
96
  6
DIVIDE
 10
689.194346
 20
524.645833
 40
6.001769
 41
0.833333
  1
定　　　　　格
  7
KANJI
 50
0.000000
 51
0.000000
  0
LINE
  8
15
 62
96
  6
CONTINUOUS
 10
800.220119
 20
290.869593
 11
800.220119
 21
295.133722
  0
LINE
  8
15
 62
96
  6
CONTINUOUS
 10
30.000000
 20
544.151584
 11
800.227600
 21
544.151584
  0
LINE
  8
15
 62
96
  6
CONTINUOUS
 10
800.227600
 20
29.999354
 11
800.227600
 21
544.150938
  0
TEXT
  8
15
 62
96
  6
CONTINUOUS
 10
621.035263
 20
113.255697
 40
5.001474
 41
0.900000
  1
型　式
  7
KANJI
 50
0.000000
 51
0.000000
  0
LINE
  8
15
 62
96
  6
CONTINUOUS
 10
620.172955
 20
119.026247
 11
800.226039
 21
119.026247
  0
LINE
  8
15
 62
96
  6
CONTINUOUS
 10
669.905314
 20
544.151584
 11
669.905314
 21
533.148340
  0
LINE
  8
15
 62
96
  6
CONTINUOUS
 10
620.172955
 20
130.029491
 11
800.226039
 21
130.029491
  0
TEXT
  8
15
 62
96
  6
CONTINUOUS
 10
632.576612
 20
121.526984
 40
6.001769
 41
0.944444
  1
図面履歴
  7
KANJI
 50
-0.000000
 51
0.000000
  0
LINE
  8
15
 62
96
  6
CONTINUOUS
 10
620.172955
 20
119.026247
 11
800.226039
 21
119.026247
  0
LINE
  8
15
 62
96
  6
CONTINUOUS
 10
670.187701
 20
130.029491
 11
670.187701
 21
119.026247
  0
LINE
  8
15
 62
96
  6
CONTINUOUS
 10
620.172955
 20
119.026247
 11
800.226039
 21
119.026247
  0
LINE
  8
15
 62
96
  6
CONTINUOUS
 10
710.241002
 20
66.007085
 11
710.241002
 21
54.007085
  0
LINE
  8
15
 62
96
  6
CONTINUOUS
 10
724.241002
 20
66.007095
 11
724.241002
 21
54.007095
  0
TEXT
  8
15
 62
96
  6
CONTINUOUS
 10
712.264335
 20
57.242959
 40
5.000000
 41
0.900000
  1
日付
  7
KANJI
 50
0.000000
 51
0.000000
  0
LINE
  8
15
 62
96
  6
CONTINUOUS
 10
776.227081
 20
66.007090
 11
776.227081
 21
54.007090
  0
LINE
  8
15
 62
96
  6
CONTINUOUS
 10
782.328460
 20
64.487090
 11
782.328460
 21
55.527090
  0
CIRCLE
  8
15
 62
96
  6
CONTINUOUS
 10
782.328460
 20
60.007090
 40
1.920000
  0
CIRCLE
  8
15
 62
96
  6
CONTINUOUS
 10
782.328460
 20
60.007090
 40
3.200000
  0
LINE
  8
15
 62
96
  6
CONTINUOUS
 10
787.607002
 20
61.927090
 11
787.607002
 21
58.087090
  0
LINE
  8
15
 62
96
  6
CONTINUOUS
 10
797.847002
 20
63.207090
 11
797.847002
 21
56.807090
  0
LINE
  8
15
 62
96
  6
CONTINUOUS
 10
787.607002
 20
61.927090
 11
797.847002
 21
63.207090
  0
LINE
  8
15
 62
96
  6
CONTINUOUS
 10
787.607002
 20
58.087090
 11
797.847002
 21
56.807090
  0
LINE
  8
15
 62
96
  6
CONTINUOUS
 10
777.848460
 20
60.007090
 11
798.939002
 21
60.007090
  0
TEXT
  8
15
 62
96
  6
CONTINUOUS
 10
651.605163
 20
78.365937
 40
5.001474
 41
0.900000
  1
承認
  7
KANJI
 50
0.000000
 51
0.000000
  0
TEXT
  8
15
 62
96
  6
CONTINUOUS
 10
701.619909
 20
78.365937
 40
5.001474
 41
0.900000
  1
検図
  7
KANJI
 50
0.000000
 51
0.000000
  0
TEXT
  8
15
 62
96
  6
CONTINUOUS
 10
720.835107
 20
69.141220
 40
10.002949
 41
0.900000
  1
辻
  7
KANJI
 50
0.000000
 51
0.000000
  0
TEXT
  8
15
 62
96
  6
CONTINUOUS
 10
664.974161
 20
69.141220
 40
10.002949
 41
0.900000
  1
仲代
  7
KANJI
 50
0.000000
 51
0.000000
  0
LINE
  8
15
 62
96
  6
CONTINUOUS
 10
800.227600
 20
66.010630
 11
620.173997
 21
66.010617
  0
LINE
  8
15
 62
96
  6
CONTINUOUS
 10
620.173997
 20
84.015925
 11
800.227600
 21
84.015925
  0
TEXT
  8
15
 62
96
  6
CONTINUOUS
 10
684.332759
 20
87.887221
 40
10.002949
 41
0.900000
  1
操作表示器
  7
KANJI
 50
0.000000
 51
0.000000
  0
TEXT
  8
15
 62
96
  6
CONTINUOUS
 10
625.843729
 20
69.030416
 40
6.001769
 41
0.833333
  1
１：１
  7
KANJI
 50
0.000000
 51
0.000000
  0
TEXT
  8
15
 62
96
  6
CONTINUOUS
 10
767.671106
 20
69.141220
 40
10.002949
 41
0.900000
  1
岩田
  7
KANJI
 50
0.000000
 51
0.000000
  0
TEXT
  8
15
 62
96
  6
CONTINUOUS
 10
728.811045
 20
56.887915
 40
6.001769
 41
0.603448
  1
2007年09月05日
  7
KANJI
 50
0.000000
 51
0.000000
  0
TEXT
  8
15
 62
96
  6
DIVIDE
 10
714.201719
 20
535.649077
 40
6.001769
 41
0.833333
  1
０８０１０４４
  7
KANJI
 50
0.000000
 51
0.000000
  0
TEXT
  8
15
 62
96
  6
CONTINUOUS
 10
673.988821
 20
105.022118
 40
10.002949
 41
0.900000
  1
Ｂ－９６１２Ｆ
  7
KANJI
 50
0.000000
 51
0.000000
  0
TEXT
  8
15
 62
96
  6
CONTINUOUS
 10
709.779597
 20
121.540798
 40
6.001769
 41
0.566667
  1
G50002-01-03716
  7
KANJI
 50
0.000000
 51
0.000000
  0
TEXT
  8
15
 62
96
  6
CONTINUOUS
 10
654.568681
 20
56.526660
 40
7.000000
 41
0.500000
  1
G50002-01-07905
  7
KANJI
 50
0.000000
 51
0.000000
  0
TEXT
  8
1
 62
7
  6
CONTINUOUS
 10
157.630621
 20
302.620001
 40
7.000000
 41
0.833333
  1
開　扉
  7
KANJI
 50
0.000000
 51
0.000000
  0
TEXT
  8
1
 62
7
  6
CONTINUOUS
 10
120.190620
 20
302.620001
 40
7.000000
 41
0.833333
  1
解　錠
  7
KANJI
 50
0.000000
 51
0.000000
  0
TEXT
  8
1
 62
7
  6
CONTINUOUS
 10
120.130620
 20
366.579999
 40
7.000000
 41
0.833333
  1
電　源
  7
KANJI
 50
0.000000
 51
0.000000
  0
TEXT
  8
1
 62
7
  6
CONTINUOUS
 10
156.150617
 20
253.960003
 40
18.000000
 41
0.870370
  1
す
  7
KANJI
 50
0.000000
 51
0.000000
  0
TEXT
  8
1
 62
7
  6
CONTINUOUS
 10
124.150619
 20
253.960003
 40
18.000000
 41
0.870370
  1
押
  7
KANJI
 50
0.000000
 51
0.000000
  0
LINE
  8
1
 62
7
  6
CONTINUOUS
 10
118.484162
 20
232.260001
 11
179.817075
 21
232.260001
  0
LINE
  8
1
 62
7
  6
CONTINUOUS
 10
116.591013
 20
232.860000
 11
181.710224
 21
232.860000
  0
LINE
  8
1
 62
7
  6
CONTINUOUS
 10
115.341143
 20
233.460001
 11
182.960094
 21
233.460001
  0
LINE
  8
1
 62
7
  6
CONTINUOUS
 10
114.369025
 20
234.060002
 11
119.739943
 21
234.060002
  0
LINE
  8
1
 62
7
  6
CONTINUOUS
 10
178.561294
 20
234.060002
 11
183.932213
 21
234.060002
  0
LINE
  8
1
 62
7
  6
CONTINUOUS
 10
113.567084
 20
234.660000
 11
117.475025
 21
234.660000
  0
LINE
  8
1
 62
7
  6
CONTINUOUS
 10
180.826213
 20
234.660000
 11
184.734153
 21
234.660000
  0
LINE
  8
1
 62
7
  6
CONTINUOUS
 10
112.885632
 20
235.260001
 11
116.220101
 21
235.260001
  0
LINE
  8
1
 62
7
  6
CONTINUOUS
 10
182.081137
 20
235.260001
 11
185.415606
 21
235.260001
  0
LINE
  8
1
 62
7
  6
CONTINUOUS
 10
112.296805
 20
235.859999
 11
115.286319
 21
235.859999
  0
LINE
  8
1
 62
7
  6
CONTINUOUS
 10
183.014919
 20
235.859999
 11
186.004432
 21
235.859999
  0
LINE
  8
1
 62
7
  6
CONTINUOUS
 10
111.783121
 20
236.460001
 11
114.536242
 21
236.460001
  0
LINE
  8
1
 62
7
  6
CONTINUOUS
 10
183.764995
 20
236.460001
 11
186.518116
 21
236.460001
  0
LINE
  8
1
 62
7
  6
CONTINUOUS
 10
111.332779
 20
237.060002
 11
113.912524
 21
237.060002
  0
LINE
  8
1
 62
7
  6
CONTINUOUS
 10
184.388713
 20
237.060002
 11
186.968458
 21
237.060002
  0
LINE
  8
1
 62
7
  6
CONTINUOUS
 10
110.937393
 20
237.660000
 11
113.384668
 21
237.660000
  0
LINE
  8
1
 62
7
  6
CONTINUOUS
 10
184.916569
 20
237.660000
 11
187.363845
 21
237.660000
  0
LINE
  8
1
 62
7
  6
CONTINUOUS
 10
110.590788
 20
238.260001
 11
112.934173
 21
238.260001
  0
LINE
  8
1
 62
7
  6
CONTINUOUS
 10
185.367065
 20
238.260001
 11
187.710449
 21
238.260001
  0
LINE
  8
1
 62
7
  6
CONTINUOUS
 10
110.288300
 20
238.860002
 11
112.548875
 21
238.860002
  0
LINE
  8
1
 62
7
  6
CONTINUOUS
 10
185.752362
 20
238.860002
 11
188.012938
 21
238.860002
  0
LINE
  8
1
 62
7
  6
CONTINUOUS
 10
110.026323
 20
239.460000
 11
112.220333
 21
239.460000
  0
LINE
  8
1
 62
7
  6
CONTINUOUS
 10
186.080905
 20
239.460000
 11
188.274915
 21
239.460000
  0
LINE
  8
1
 62
7
  6
CONTINUOUS
 10
109.802050
 20
240.060002
 11
111.942471
 21
240.060002
  0
LINE
  8
1
 62
7
  6
CONTINUOUS
 10
186.358766
 20
240.060002
 11
188.499188
 21
240.060002
  0
LINE
  8
1
 62
7
  6
CONTINUOUS
 10
109.613288
 20
240.660000
 11
111.710810
 21
240.660000
  0
LINE
  8
1
 62
7
  6
CONTINUOUS
 10
186.590427
 20
240.660000
 11
188.687950
 21
240.660000
  0
LINE
  8
1
 62
7
  6
CONTINUOUS
 10
109.458315
 20
241.260001
 11
111.522017
 21
241.260001
  0
LINE
  8
1
 62
7
  6
CONTINUOUS
 10
186.779221
 20
241.260001
 11
188.842922
 21
241.260001
  0
LINE
  8
1
 62
7
  6
CONTINUOUS
 10
109.335799
 20
241.860002
 11
111.373606
 21
241.860002
  0
LINE
  8
1
 62
7
  6
CONTINUOUS
 10
186.927631
 20
241.860002
 11
188.965439
 21
241.860002
  0
LINE
  8
1
 62
7
  6
CONTINUOUS
 10
109.244738
 20
242.460000
 11
111.263760
 21
242.460000
  0
LINE
  8
1
 62
7
  6
CONTINUOUS
 10
187.037477
 20
242.460000
 11
189.056500
 21
242.460000
  0
LINE
  8
1
 62
7
  6
CONTINUOUS
 10
109.184419
 20
243.060001
 11
111.191203
 21
243.060001
  0
LINE
  8
1
 62
7
  6
CONTINUOUS
 10
187.110035
 20
243.060001
 11
189.116819
 21
243.060001
  0
LINE
  8
1
 62
7
  6
CONTINUOUS
 10
109.154372
 20
243.660000
 11
111.155119
 21
243.660000
  0
LINE
  8
1
 62
7
  6
CONTINUOUS
 10
187.146118
 20
243.660000
 11
189.146866
 21
243.660000
  0
LINE
  8
1
 62
7
  6
CONTINUOUS
 10
109.150620
 20
244.260001
 11
111.150619
 21
244.260001
  0
LINE
  8
1
 62
7
  6
CONTINUOUS
 10
187.150618
 20
244.260001
 11
189.150618
 21
244.260001
  0
LINE
  8
1
 62
7
  6
CONTINUOUS
 10
109.150620
 20
244.860002
 11
111.150619
 21
244.860002
  0
LINE
  8
1
 62
7
  6
CONTINUOUS
 10
187.150618
 20
244.860002
 11
189.150618
 21
244.860002
  0
LINE
  8
1
 62
7
  6
CONTINUOUS
 10
109.150620
 20
245.460000
 11
111.150619
 21
245.460000
  0
LINE
  8
1
 62
7
  6
CONTINUOUS
 10
187.150618
 20
245.460000
 11
189.150618
 21
245.460000
  0
LINE
  8
1
 62
7
  6
CONTINUOUS
 10
109.150620
 20
246.060001
 11
111.150619
 21
246.060001
  0
LINE
  8
1
 62
7
  6
CONTINUOUS
 10
187.150618
 20
246.060001
 11
189.150618
 21
246.060001
  0
LINE
  8
1
 62
7
  6
CONTINUOUS
 10
109.150620
 20
246.659999
 11
111.150619
 21
246.659999
  0
LINE
  8
1
 62
7
  6
CONTINUOUS
 10
187.150618
 20
246.659999
 11
189.150618
 21
246.659999
  0
LINE
  8
1
 62
7
  6
CONTINUOUS
 10
109.150620
 20
247.260001
 11
111.150619
 21
247.260001
  0
LINE
  8
1
 62
7
  6
CONTINUOUS
 10
187.150618
 20
247.260001
 11
189.150618
 21
247.260001
  0
LINE
  8
1
 62
7
  6
CONTINUOUS
 10
109.150620
 20
247.860002
 11
111.150619
 21
247.860002
  0
LINE
  8
1
 62
7
  6
CONTINUOUS
 10
187.150618
 20
247.860002
 11
189.150618
 21
247.860002
  0
LINE
  8
1
 62
7
  6
CONTINUOUS
 10
109.150620
 20
248.460000
 11
111.150619
 21
248.460000
  0
LINE
  8
1
 62
7
  6
CONTINUOUS
 10
187.150618
 20
248.460000
 11
189.150618
 21
248.460000
  0
LINE
  8
1
 62
7
  6
CONTINUOUS
 10
109.150620
 20
249.060001
 11
111.150619
 21
249.060001
  0
LINE
  8
1
 62
7
  6
CONTINUOUS
 10
187.150618
 20
249.060001
 11
189.150618
 21
249.060001
  0
LINE
  8
1
 62
7
  6
CONTINUOUS
 10
109.150620
 20
249.660002
 11
111.150619
 21
249.660002
  0
LINE
  8
1
 62
7
  6
CONTINUOUS
 10
187.150618
 20
249.660002
 11
189.150618
 21
249.660002
  0
LINE
  8
1
 62
7
  6
CONTINUOUS
 10
109.150620
 20
250.260000
 11
111.150619
 21
250.260000
  0
LINE
  8
1
 62
7
  6
CONTINUOUS
 10
187.150618
 20
250.260000
 11
189.150618
 21
250.260000
  0
LINE
  8
1
 62
7
  6
CONTINUOUS
 10
109.150620
 20
250.860002
 11
111.150619
 21
250.860002
  0
LINE
  8
1
 62
7
  6
CONTINUOUS
 10
187.150618
 20
250.860002
 11
189.150618
 21
250.860002
  0
LINE
  8
1
 62
7
  6
CONTINUOUS
 10
109.150620
 20
251.460000
 11
111.150619
 21
251.460000
  0
LINE
  8
1
 62
7
  6
CONTINUOUS
 10
187.150618
 20
251.460000
 11
189.150618
 21
251.460000
  0
LINE
  8
1
 62
7
  6
CONTINUOUS
 10
109.150620
 20
252.060001
 11
111.150619
 21
252.060001
  0
LINE
  8
1
 62
7
  6
CONTINUOUS
 10
187.150618
 20
252.060001
 11
189.150618
 21
252.060001
  0
LINE
  8
1
 62
7
  6
CONTINUOUS
 10
109.150620
 20
252.660002
 11
111.150619
 21
252.660002
  0
LINE
  8
1
 62
7
  6
CONTINUOUS
 10
187.150618
 20
252.660002
 11
189.150618
 21
252.660002
  0
LINE
  8
1
 62
7
  6
CONTINUOUS
 10
109.150620
 20
253.260000
 11
111.150619
 21
253.260000
  0
LINE
  8
1
 62
7
  6
CONTINUOUS
 10
187.150618
 20
253.260000
 11
189.150618
 21
253.260000
  0
LINE
  8
1
 62
7
  6
CONTINUOUS
 10
109.150620
 20
253.860001
 11
111.150619
 21
253.860001
  0
LINE
  8
1
 62
7
  6
CONTINUOUS
 10
187.150618
 20
253.860001
 11
189.150618
 21
253.860001
  0
LINE
  8
1
 62
7
  6
CONTINUOUS
 10
109.150620
 20
254.460000
 11
111.150619
 21
254.460000
  0
LINE
  8
1
 62
7
  6
CONTINUOUS
 10
187.150618
 20
254.460000
 11
189.150618
 21
254.460000
  0
LINE
  8
1
 62
7
  6
CONTINUOUS
 10
109.150620
 20
255.060001
 11
111.150619
 21
255.060001
  0
LINE
  8
1
 62
7
  6
CONTINUOUS
 10
187.150618
 20
255.060001
 11
189.150618
 21
255.060001
  0
LINE
  8
1
 62
7
  6
CONTINUOUS
 10
109.150620
 20
255.660002
 11
111.150619
 21
255.660002
  0
LINE
  8
1
 62
7
  6
CONTINUOUS
 10
187.150618
 20
255.660002
 11
189.150618
 21
255.660002
  0
LINE
  8
1
 62
7
  6
CONTINUOUS
 10
109.150620
 20
256.260000
 11
111.150619
 21
256.260000
  0
LINE
  8
1
 62
7
  6
CONTINUOUS
 10
187.150618
 20
256.260000
 11
189.150618
 21
256.260000
  0
LINE
  8
1
 62
7
  6
CONTINUOUS
 10
109.150620
 20
256.860001
 11
111.150619
 21
256.860001
  0
LINE
  8
1
 62
7
  6
CONTINUOUS
 10
187.150618
 20
256.860001
 11
189.150618
 21
256.860001
  0
LINE
  8
1
 62
7
  6
CONTINUOUS
 10
109.150620
 20
257.459999
 11
111.150619
 21
257.459999
  0
LINE
  8
1
 62
7
  6
CONTINUOUS
 10
187.150618
 20
257.459999
 11
189.150618
 21
257.459999
  0
LINE
  8
1
 62
7
  6
CONTINUOUS
 10
109.150620
 20
258.060001
 11
111.150619
 21
258.060001
  0
LINE
  8
1
 62
7
  6
CONTINUOUS
 10
187.150618
 20
258.060001
 11
189.150618
 21
258.060001
  0
LINE
  8
1
 62
7
  6
CONTINUOUS
 10
109.150620
 20
258.660002
 11
111.150619
 21
258.660002
  0
LINE
  8
1
 62
7
  6
CONTINUOUS
 10
187.150618
 20
258.660002
 11
189.150618
 21
258.660002
  0
LINE
  8
1
 62
7
  6
CONTINUOUS
 10
109.150620
 20
259.260000
 11
111.150619
 21
259.260000
  0
LINE
  8
1
 62
7
  6
CONTINUOUS
 10
187.150618
 20
259.260000
 11
189.150618
 21
259.260000
  0
LINE
  8
1
 62
7
  6
CONTINUOUS
 10
109.150620
 20
259.860001
 11
111.150619
 21
259.860001
  0
LINE
  8
1
 62
7
  6
CONTINUOUS
 10
187.150618
 20
259.860001
 11
189.150618
 21
259.860001
  0
LINE
  8
1
 62
7
  6
CONTINUOUS
 10
109.150620
 20
260.460002
 11
111.150619
 21
260.460002
  0
LINE
  8
1
 62
7
  6
CONTINUOUS
 10
187.150618
 20
260.460002
 11
189.150618
 21
260.460002
  0
LINE
  8
1
 62
7
  6
CONTINUOUS
 10
109.150620
 20
261.060000
 11
111.150619
 21
261.060000
  0
LINE
  8
1
 62
7
  6
CONTINUOUS
 10
187.150618
 20
261.060000
 11
189.150618
 21
261.060000
  0
LINE
  8
1
 62
7
  6
CONTINUOUS
 10
109.150620
 20
261.660002
 11
111.150619
 21
261.660002
  0
LINE
  8
1
 62
7
  6
CONTINUOUS
 10
187.150618
 20
261.660002
 11
189.150618
 21
261.660002
  0
LINE
  8
1
 62
7
  6
CONTINUOUS
 10
109.150620
 20
262.260000
 11
111.150619
 21
262.260000
  0
LINE
  8
1
 62
7
  6
CONTINUOUS
 10
187.150618
 20
262.260000
 11
189.150618
 21
262.260000
  0
LINE
  8
1
 62
7
  6
CONTINUOUS
 10
109.150620
 20
262.860001
 11
111.150619
 21
262.860001
  0
LINE
  8
1
 62
7
  6
CONTINUOUS
 10
187.150618
 20
262.860001
 11
189.150618
 21
262.860001
  0
LINE
  8
1
 62
7
  6
CONTINUOUS
 10
109.150620
 20
263.460002
 11
111.150619
 21
263.460002
  0
LINE
  8
1
 62
7
  6
CONTINUOUS
 10
187.150618
 20
263.460002
 11
189.150618
 21
263.460002
  0
LINE
  8
1
 62
7
  6
CONTINUOUS
 10
109.150620
 20
264.060000
 11
111.150619
 21
264.060000
  0
LINE
  8
1
 62
7
  6
CONTINUOUS
 10
187.150618
 20
264.060000
 11
189.150618
 21
264.060000
  0
LINE
  8
1
 62
7
  6
CONTINUOUS
 10
109.150620
 20
264.660001
 11
111.150619
 21
264.660001
  0
LINE
  8
1
 62
7
  6
CONTINUOUS
 10
187.150618
 20
264.660001
 11
189.150618
 21
264.660001
  0
LINE
  8
1
 62
7
  6
CONTINUOUS
 10
109.150620
 20
265.259999
 11
111.150619
 21
265.259999
  0
LINE
  8
1
 62
7
  6
CONTINUOUS
 10
187.150618
 20
265.259999
 11
189.150618
 21
265.259999
  0
LINE
  8
1
 62
7
  6
CONTINUOUS
 10
109.150620
 20
265.860001
 11
111.150619
 21
265.860001
  0
LINE
  8
1
 62
7
  6
CONTINUOUS
 10
187.150618
 20
265.860001
 11
189.150618
 21
265.860001
  0
LINE
  8
1
 62
7
  6
CONTINUOUS
 10
109.150620
 20
266.460002
 11
111.150619
 21
266.460002
  0
LINE
  8
1
 62
7
  6
CONTINUOUS
 10
187.150618
 20
266.460002
 11
189.150618
 21
266.460002
  0
LINE
  8
1
 62
7
  6
CONTINUOUS
 10
109.150620
 20
267.060000
 11
111.150619
 21
267.060000
  0
LINE
  8
1
 62
7
  6
CONTINUOUS
 10
187.150618
 20
267.060000
 11
189.150618
 21
267.060000
  0
LINE
  8
1
 62
7
  6
CONTINUOUS
 10
109.150620
 20
267.660001
 11
111.150619
 21
267.660001
  0
LINE
  8
1
 62
7
  6
CONTINUOUS
 10
187.150618
 20
267.660001
 11
189.150618
 21
267.660001
  0
LINE
  8
1
 62
7
  6
CONTINUOUS
 10
109.150620
 20
268.259999
 11
111.150619
 21
268.259999
  0
LINE
  8
1
 62
7
  6
CONTINUOUS
 10
187.150618
 20
268.259999
 11
189.150618
 21
268.259999
  0
LINE
  8
1
 62
7
  6
CONTINUOUS
 10
109.150620
 20
268.860001
 11
111.150619
 21
268.860001
  0
LINE
  8
1
 62
7
  6
CONTINUOUS
 10
187.150618
 20
268.860001
 11
189.150618
 21
268.860001
  0
LINE
  8
1
 62
7
  6
CONTINUOUS
 10
109.150620
 20
269.460002
 11
111.150619
 21
269.460002
  0
LINE
  8
1
 62
7
  6
CONTINUOUS
 10
187.150618
 20
269.460002
 11
189.150618
 21
269.460002
  0
LINE
  8
1
 62
7
  6
CONTINUOUS
 10
109.150620
 20
270.060000
 11
111.150619
 21
270.060000
  0
LINE
  8
1
 62
7
  6
CONTINUOUS
 10
187.150618
 20
270.060000
 11
189.150618
 21
270.060000
  0
LINE
  8
1
 62
7
  6
CONTINUOUS
 10
109.150620
 20
270.660001
 11
111.150619
 21
270.660001
  0
LINE
  8
1
 62
7
  6
CONTINUOUS
 10
187.150618
 20
270.660001
 11
189.150618
 21
270.660001
  0
LINE
  8
1
 62
7
  6
CONTINUOUS
 10
109.150620
 20
271.260002
 11
111.150619
 21
271.260002
  0
LINE
  8
1
 62
7
  6
CONTINUOUS
 10
187.150618
 20
271.260002
 11
189.150618
 21
271.260002
  0
LINE
  8
1
 62
7
  6
CONTINUOUS
 10
109.150620
 20
271.860000
 11
111.150619
 21
271.860000
  0
LINE
  8
1
 62
7
  6
CONTINUOUS
 10
187.150618
 20
271.860000
 11
189.150618
 21
271.860000
  0
LINE
  8
1
 62
7
  6
CONTINUOUS
 10
109.150620
 20
272.460002
 11
111.150619
 21
272.460002
  0
LINE
  8
1
 62
7
  6
CONTINUOUS
 10
187.150618
 20
272.460002
 11
189.150618
 21
272.460002
  0
LINE
  8
1
 62
7
  6
CONTINUOUS
 10
109.150620
 20
273.060000
 11
111.150619
 21
273.060000
  0
LINE
  8
1
 62
7
  6
CONTINUOUS
 10
187.150618
 20
273.060000
 11
189.150618
 21
273.060000
  0
LINE
  8
1
 62
7
  6
CONTINUOUS
 10
109.150620
 20
273.660001
 11
111.150619
 21
273.660001
  0
LINE
  8
1
 62
7
  6
CONTINUOUS
 10
187.150618
 20
273.660001
 11
189.150618
 21
273.660001
  0
LINE
  8
1
 62
7
  6
CONTINUOUS
 10
109.150620
 20
274.260002
 11
111.150619
 21
274.260002
  0
LINE
  8
1
 62
7
  6
CONTINUOUS
 10
187.150618
 20
274.260002
 11
189.150618
 21
274.260002
  0
LINE
  8
1
 62
7
  6
CONTINUOUS
 10
109.150620
 20
274.860000
 11
111.150619
 21
274.860000
  0
LINE
  8
1
 62
7
  6
CONTINUOUS
 10
187.150618
 20
274.860000
 11
189.150618
 21
274.860000
  0
LINE
  8
1
 62
7
  6
CONTINUOUS
 10
109.150620
 20
275.460001
 11
111.150619
 21
275.460001
  0
LINE
  8
1
 62
7
  6
CONTINUOUS
 10
187.150618
 20
275.460001
 11
189.150618
 21
275.460001
  0
LINE
  8
1
 62
7
  6
CONTINUOUS
 10
109.150620
 20
276.059999
 11
111.150619
 21
276.059999
  0
LINE
  8
1
 62
7
  6
CONTINUOUS
 10
187.150618
 20
276.059999
 11
189.150618
 21
276.059999
  0
LINE
  8
1
 62
7
  6
CONTINUOUS
 10
109.150620
 20
276.660001
 11
111.150619
 21
276.660001
  0
LINE
  8
1
 62
7
  6
CONTINUOUS
 10
187.150618
 20
276.660001
 11
189.150618
 21
276.660001
  0
LINE
  8
1
 62
7
  6
CONTINUOUS
 10
109.150620
 20
277.260002
 11
111.150619
 21
277.260002
  0
LINE
  8
1
 62
7
  6
CONTINUOUS
 10
187.150618
 20
277.260002
 11
189.150618
 21
277.260002
  0
LINE
  8
1
 62
7
  6
CONTINUOUS
 10
109.150620
 20
277.860000
 11
111.150619
 21
277.860000
  0
LINE
  8
1
 62
7
  6
CONTINUOUS
 10
187.150618
 20
277.860000
 11
189.150618
 21
277.860000
  0
LINE
  8
1
 62
7
  6
CONTINUOUS
 10
109.150620
 20
278.460001
 11
111.150619
 21
278.460001
  0
LINE
  8
1
 62
7
  6
CONTINUOUS
 10
187.150618
 20
278.460001
 11
189.150618
 21
278.460001
  0
LINE
  8
1
 62
7
  6
CONTINUOUS
 10
109.150620
 20
279.059999
 11
111.150619
 21
279.059999
  0
LINE
  8
1
 62
7
  6
CONTINUOUS
 10
187.150618
 20
279.059999
 11
189.150618
 21
279.059999
  0
LINE
  8
1
 62
7
  6
CONTINUOUS
 10
109.150620
 20
279.660001
 11
111.150619
 21
279.660001
  0
LINE
  8
1
 62
7
  6
CONTINUOUS
 10
187.150618
 20
279.660001
 11
189.150618
 21
279.660001
  0
LINE
  8
1
 62
7
  6
CONTINUOUS
 10
109.150620
 20
280.260002
 11
111.150619
 21
280.260002
  0
LINE
  8
1
 62
7
  6
CONTINUOUS
 10
187.150618
 20
280.260002
 11
189.150618
 21
280.260002
  0
LINE
  8
1
 62
7
  6
CONTINUOUS
 10
109.150620
 20
280.860000
 11
111.150619
 21
280.860000
  0
LINE
  8
1
 62
7
  6
CONTINUOUS
 10
187.150618
 20
280.860000
 11
189.150618
 21
280.860000
  0
LINE
  8
1
 62
7
  6
CONTINUOUS
 10
109.150620
 20
281.460001
 11
111.150619
 21
281.460001
  0
LINE
  8
1
 62
7
  6
CONTINUOUS
 10
187.150618
 20
281.460001
 11
189.150618
 21
281.460001
  0
LINE
  8
1
 62
7
  6
CONTINUOUS
 10
109.151036
 20
282.060002
 11
111.151120
 21
282.060002
  0
LINE
  8
1
 62
7
  6
CONTINUOUS
 10
187.150117
 20
282.060002
 11
189.150202
 21
282.060002
  0
LINE
  8
1
 62
7
  6
CONTINUOUS
 10
109.171054
 20
282.660000
 11
111.175150
 21
282.660000
  0
LINE
  8
1
 62
7
  6
CONTINUOUS
 10
187.126088
 20
282.660000
 11
189.130184
 21
282.660000
  0
LINE
  8
1
 62
7
  6
CONTINUOUS
 10
109.221243
 20
283.260002
 11
111.235478
 21
283.260002
  0
LINE
  8
1
 62
7
  6
CONTINUOUS
 10
187.065759
 20
283.260002
 11
189.079994
 21
283.260002
  0
LINE
  8
1
 62
7
  6
CONTINUOUS
 10
109.301990
 20
283.860000
 11
111.332779
 21
283.860000
  0
LINE
  8
1
 62
7
  6
CONTINUOUS
 10
186.968458
 20
283.860000
 11
188.999247
 21
283.860000
  0
LINE
  8
1
 62
7
  6
CONTINUOUS
 10
109.413924
 20
284.460001
 11
111.468163
 21
284.460001
  0
LINE
  8
1
 62
7
  6
CONTINUOUS
 10
186.833075
 20
284.460001
 11
188.887314
 21
284.460001
  0
LINE
  8
1
 62
7
  6
CONTINUOUS
 10
109.557950
 20
285.060002
 11
111.643253
 21
285.060002
  0
LINE
  8
1
 62
7
  6
CONTINUOUS
 10
186.657984
 20
285.060002
 11
188.743287
 21
285.060002
  0
LINE
  8
1
 62
7
  6
CONTINUOUS
 10
109.735278
 20
285.660000
 11
111.860301
 21
285.660000
  0
LINE
  8
1
 62
7
  6
CONTINUOUS
 10
186.440937
 20
285.660000
 11
188.565959
 21
285.660000
  0
LINE
  8
1
 62
7
  6
CONTINUOUS
 10
109.947494
 20
286.260001
 11
112.122331
 21
286.260001
  0
LINE
  8
1
 62
7
  6
CONTINUOUS
 10
186.178906
 20
286.260001
 11
188.353743
 21
286.260001
  0
LINE
  8
1
 62
7
  6
CONTINUOUS
 10
110.196626
 20
286.859999
 11
112.433397
 21
286.859999
  0
LINE
  8
1
 62
7
  6
CONTINUOUS
 10
185.867841
 20
286.859999
 11
188.104612
 21
286.859999
  0
LINE
  8
1
 62
7
  6
CONTINUOUS
 10
110.485255
 20
287.460001
 11
112.798974
 21
287.460001
  0
LINE
  8
1
 62
7
  6
CONTINUOUS
 10
185.502264
 20
287.460001
 11
187.815983
 21
287.460001
  0
LINE
  8
1
 62
7
  6
CONTINUOUS
 10
110.816695
 20
288.060002
 11
113.226607
 21
288.060002
  0
LINE
  8
1
 62
7
  6
CONTINUOUS
 10
185.074631
 20
288.060002
 11
187.484543
 21
288.060002
  0
LINE
  8
1
 62
7
  6
CONTINUOUS
 10
111.195221
 20
288.660000
 11
113.727007
 21
288.660000
  0
LINE
  8
1
 62
7
  6
CONTINUOUS
 10
184.574230
 20
288.660000
 11
187.106017
 21
288.660000
  0
LINE
  8
1
 62
7
  6
CONTINUOUS
 10
111.626440
 20
289.260001
 11
114.316147
 21
289.260001
  0
LINE
  8
1
 62
7
  6
CONTINUOUS
 10
183.985091
 20
289.260001
 11
186.674798
 21
289.260001
  0
LINE
  8
1
 62
7
  6
CONTINUOUS
 10
112.117900
 20
289.859999
 11
115.019551
 21
289.859999
  0
LINE
  8
1
 62
7
  6
CONTINUOUS
 10
183.281687
 20
289.859999
 11
186.183337
 21
289.859999
  0
LINE
  8
1
 62
7
  6
CONTINUOUS
 10
112.680081
 20
290.460000
 11
115.882793
 21
290.460000
  0
LINE
  8
1
 62
7
  6
CONTINUOUS
 10
182.418444
 20
290.460000
 11
185.621156
 21
290.460000
  0
LINE
  8
1
 62
7
  6
CONTINUOUS
 10
113.328216
 20
291.060002
 11
117.004537
 21
291.060002
  0
LINE
  8
1
 62
7
  6
CONTINUOUS
 10
181.296701
 20
291.060002
 11
184.973021
 21
291.060002
  0
LINE
  8
1
 62
7
  6
CONTINUOUS
 10
114.085919
 20
291.660000
 11
118.719572
 21
291.660000
  0
LINE
  8
1
 62
7
  6
CONTINUOUS
 10
179.581666
 20
291.660000
 11
184.215318
 21
291.660000
  0
LINE
  8
1
 62
7
  6
CONTINUOUS
 10
114.993509
 20
292.260001
 11
183.307728
 21
292.260001
  0
LINE
  8
1
 62
7
  6
CONTINUOUS
 10
116.131656
 20
292.860002
 11
182.169582
 21
292.860002
  0
LINE
  8
1
 62
7
  6
CONTINUOUS
 10
117.722792
 20
293.460000
 11
180.578446
 21
293.460000
  0
LINE
  8
1
 62
7
  6
CONTINUOUS
 10
177.150619
 20
233.960001
 11
121.150619
 21
233.960001
  0
LINE
  8
1
 62
7
  6
CONTINUOUS
 10
111.150619
 20
243.960000
 11
111.150619
 21
281.960001
  0
ARC
  8
1
 62
7
  6
CONTINUOUS
 10
121.150619
 20
243.960000
 40
9.999999
 50
180.000000
 51
-90.000000
  0
LINE
  8
1
 62
7
  6
CONTINUOUS
 10
187.150618
 20
281.960001
 11
187.150618
 21
243.960000
  0
ARC
  8
1
 62
7
  6
CONTINUOUS
 10
177.150619
 20
243.960000
 40
9.999999
 50
-90.000000
 51
0.000000
  0
LINE
  8
1
 62
7
  6
CONTINUOUS
 10
121.150619
 20
291.960000
 11
177.150619
 21
291.960000
  0
ARC
  8
1
 62
7
  6
CONTINUOUS
 10
177.150619
 20
281.960001
 40
9.999999
 50
0.000000
 51
90.000000
  0
ARC
  8
1
 62
7
  6
CONTINUOUS
 10
121.150619
 20
281.960001
 40
9.999999
 50
90.000000
 51
180.000000
  0
LINE
  8
1
 62
7
  6
CONTINUOUS
 10
177.150619
 20
231.960001
 11
121.150619
 21
231.960001
  0
LINE
  8
1
 62
7
  6
CONTINUOUS
 10
109.150620
 20
243.960000
 11
109.150620
 21
281.960001
  0
ARC
  8
1
 62
7
  6
CONTINUOUS
 10
121.150619
 20
243.960000
 40
11.999999
 50
180.000000
 51
-90.000000
  0
LINE
  8
1
 62
7
  6
CONTINUOUS
 10
189.150618
 20
281.960001
 11
189.150618
 21
243.960000
  0
ARC
  8
1
 62
7
  6
CONTINUOUS
 10
177.150619
 20
243.960000
 40
11.999999
 50
-90.000000
 51
0.000000
  0
LINE
  8
1
 62
7
  6
CONTINUOUS
 10
121.150619
 20
293.960000
 11
177.150619
 21
293.960000
  0
ARC
  8
1
 62
7
  6
CONTINUOUS
 10
177.150619
 20
281.960001
 40
11.999999
 50
0.000000
 51
90.000000
  0
ARC
  8
1
 62
7
  6
CONTINUOUS
 10
121.150619
 20
281.960001
 40
11.999999
 50
90.000000
 51
180.000000
  0
ARC
  8
1
 62
7
  6
CONTINUOUS
 10
149.150620
 20
703.960038
 40
530.000040
 50
-95.167915
 51
-84.832085
  0
ARC
  8
1
 62
7
  6
CONTINUOUS
 10
195.088815
 20
196.033152
 40
19.999999
 50
-84.832085
 51
-4.750298
  0
ARC
  8
1
 62
7
  6
CONTINUOUS
 10
-983.349506
 20
293.960000
 40
1202.500125
 50
-4.750298
 51
4.750298
  0
ARC
  8
1
 62
7
  6
CONTINUOUS
 10
195.088815
 20
391.886848
 40
19.999999
 50
4.750298
 51
84.832085
  0
ARC
  8
1
 62
7
  6
CONTINUOUS
 10
149.150620
 20
-116.040038
 40
530.000040
 50
84.832085
 51
95.167915
  0
ARC
  8
1
 62
7
  6
CONTINUOUS
 10
103.212426
 20
196.033152
 40
19.999999
 50
-175.249702
 51
-95.167915
  0
ARC
  8
1
 62
7
  6
CONTINUOUS
 10
1281.650747
 20
293.960000
 40
1202.500125
 50
175.249702
 51
-175.325389
  0
ARC
  8
1
 62
7
  6
CONTINUOUS
 10
103.212426
 20
391.886848
 40
19.999999
 50
95.167915
 51
175.249702
  0
LINE
  8
1
 62
7
  6
CONTINUOUS
 10
168.150619
 20
317.399999
 11
166.130620
 21
317.399999
  0
LINE
  8
1
 62
7
  6
CONTINUOUS
 10
166.130620
 20
318.139999
 11
168.150619
 21
318.139999
  0
LINE
  8
1
 62
7
  6
CONTINUOUS
 10
166.130620
 20
317.800001
 11
168.150619
 21
317.800001
  0
LINE
  8
1
 62
7
  6
CONTINUOUS
 10
166.130620
 20
318.500000
 11
168.150619
 21
318.500000
  0
CIRCLE
  8
1
 62
7
  6
CONTINUOUS
 10
172.150619
 20
325.939999
 40
0.759999
  0
LINE
  8
1
 62
7
  6
CONTINUOUS
 10
101.650620
 20
202.500001
 11
196.650621
 21
202.500001
  0
LINE
  8
1
 62
7
  6
CONTINUOUS
 10
101.650620
 20
385.499999
 11
101.650620
 21
202.500001
  0
LINE
  8
1
 62
7
  6
CONTINUOUS
 10
196.650621
 20
385.499999
 11
101.650620
 21
385.499999
  0
LINE
  8
1
 62
7
  6
CONTINUOUS
 10
196.650621
 20
202.500001
 11
196.650621
 21
385.499999
  0
LINE
  8
1
 62
7
  6
CONTINUOUS
 10
198.150621
 20
386.960001
 11
100.150620
 21
386.960001
  0
LINE
  8
1
 62
7
  6
CONTINUOUS
 10
198.150621
 20
200.960000
 11
198.150621
 21
386.960001
  0
LINE
  8
1
 62
7
  6
CONTINUOUS
 10
100.150620
 20
200.960000
 11
198.150621
 21
200.960000
  0
LINE
  8
1
 62
7
  6
CONTINUOUS
 10
100.150620
 20
386.960001
 11
100.150620
 21
200.960000
  0
LINE
  8
1
 62
7
  6
CONTINUOUS
 10
150.270620
 20
216.960002
 11
153.770620
 21
216.960002
  0
LINE
  8
1
 62
7
  6
CONTINUOUS
 10
156.270620
 20
215.459999
 11
161.270620
 21
215.459999
  0
LINE
  8
1
 62
7
  6
CONTINUOUS
 10
159.270620
 20
215.959999
 11
159.270620
 21
210.459999
  0
LINE
  8
1
 62
7
  6
CONTINUOUS
 10
158.770620
 20
210.459999
 11
158.770620
 21
215.959999
  0
LINE
  8
1
 62
7
  6
CONTINUOUS
 10
158.270620
 20
215.959999
 11
158.270620
 21
210.459999
  0
LINE
  8
1
 62
7
  6
CONTINUOUS
 10
156.270620
 20
215.959999
 11
161.270620
 21
215.959999
  0
LINE
  8
1
 62
7
  6
CONTINUOUS
 10
161.270620
 20
216.459999
 11
156.270620
 21
216.459999
  0
LINE
  8
1
 62
7
  6
CONTINUOUS
 10
156.270620
 20
216.960002
 11
161.270620
 21
216.960002
  0
LINE
  8
1
 62
7
  6
CONTINUOUS
 10
154.770620
 20
210.459999
 11
152.770620
 21
212.459999
  0
LINE
  8
1
 62
7
  6
CONTINUOUS
 10
154.270620
 20
210.459999
 11
152.270620
 21
212.459999
  0
LINE
  8
1
 62
7
  6
CONTINUOUS
 10
153.770620
 20
210.459999
 11
151.770620
 21
212.459999
  0
LINE
  8
1
 62
7
  6
CONTINUOUS
 10
151.270620
 20
212.459999
 11
153.270620
 21
210.459999
  0
LINE
  8
1
 62
7
  6
CONTINUOUS
 10
150.770620
 20
212.959999
 11
154.770620
 21
212.959999
  0
LINE
  8
1
 62
7
  6
CONTINUOUS
 10
149.770621
 20
213.459999
 11
154.770620
 21
213.459999
  0
LINE
  8
1
 62
7
  6
CONTINUOUS
 10
153.770620
 20
213.959999
 11
155.270620
 21
213.959999
  0
LINE
  8
1
 62
7
  6
CONTINUOUS
 10
153.770620
 20
214.459999
 11
155.270620
 21
214.459999
  0
LINE
  8
1
 62
7
  6
CONTINUOUS
 10
153.770620
 20
214.959999
 11
155.270620
 21
214.959999
  0
LINE
  8
1
 62
7
  6
CONTINUOUS
 10
150.270620
 20
215.459999
 11
155.270620
 21
215.459999
  0
LINE
  8
1
 62
7
  6
CONTINUOUS
 10
150.270620
 20
215.959999
 11
155.270620
 21
215.959999
  0
LINE
  8
1
 62
7
  6
CONTINUOUS
 10
150.270620
 20
216.459999
 11
154.770620
 21
216.459999
  0
LINE
  8
1
 62
7
  6
CONTINUOUS
 10
143.270621
 20
210.459999
 11
147.770621
 21
210.459999
  0
LINE
  8
1
 62
7
  6
CONTINUOUS
 10
143.270621
 20
210.959999
 11
147.770621
 21
210.959999
  0
LINE
  8
1
 62
7
  6
CONTINUOUS
 10
143.270621
 20
211.459999
 11
147.770621
 21
211.459999
  0
LINE
  8
1
 62
7
  6
CONTINUOUS
 10
143.270621
 20
211.959999
 11
147.770621
 21
211.959999
  0
LINE
  8
1
 62
7
  6
CONTINUOUS
 10
143.270621
 20
212.459999
 11
147.270621
 21
212.459999
  0
LINE
  8
1
 62
7
  6
CONTINUOUS
 10
146.770621
 20
209.959999
 11
146.770621
 21
216.960002
  0
LINE
  8
1
 62
7
  6
CONTINUOUS
 10
147.270621
 20
209.959999
 11
147.270621
 21
217.960002
  0
LINE
  8
1
 62
7
  6
CONTINUOUS
 10
147.770621
 20
218.960002
 11
147.770621
 21
209.959999
  0
LINE
  8
1
 62
7
  6
CONTINUOUS
 10
148.270621
 20
209.959999
 11
148.270621
 21
218.960002
  0
LINE
  8
1
 62
7
  6
CONTINUOUS
 10
148.770621
 20
219.460002
 11
148.770621
 21
209.959999
  0
LINE
  8
1
 62
7
  6
CONTINUOUS
 10
139.270618
 20
209.959999
 11
149.270621
 21
219.960002
  0
LINE
  8
1
 62
7
  6
CONTINUOUS
 10
138.770618
 20
209.959999
 11
149.270621
 21
220.460002
  0
LINE
  8
1
 62
7
  6
CONTINUOUS
 10
138.270618
 20
209.959999
 11
149.270621
 21
220.960001
  0
LINE
  8
1
 62
7
  6
CONTINUOUS
 10
137.770618
 20
209.959999
 11
149.270621
 21
221.460001
  0
LINE
  8
1
 62
7
  6
CONTINUOUS
 10
137.270618
 20
209.959999
 11
149.270621
 21
221.960001
  0
LINE
  8
1
 62
7
  6
CONTINUOUS
 10
136.770618
 20
209.959999
 11
149.270621
 21
222.460001
  0
LINE
  8
1
 62
7
  6
CONTINUOUS
 10
136.270618
 20
209.959999
 11
149.270621
 21
222.960001
  0
LINE
  8
1
 62
7
  6
CONTINUOUS
 10
135.770618
 20
209.959999
 11
149.270621
 21
223.460001
  0
LINE
  8
1
 62
7
  6
CONTINUOUS
 10
153.510621
 20
212.399999
 11
156.110619
 21
209.959999
  0
LINE
  8
1
 62
7
  6
CONTINUOUS
 10
157.770620
 20
215.360001
 11
155.890620
 21
215.360001
  0
LINE
  8
1
 62
7
  6
CONTINUOUS
 10
157.770620
 20
209.959999
 11
157.770620
 21
215.360001
  0
LINE
  8
1
 62
7
  6
CONTINUOUS
 10
159.710620
 20
209.959999
 11
157.770620
 21
209.959999
  0
LINE
  8
1
 62
7
  6
CONTINUOUS
 10
159.710620
 20
215.360001
 11
159.710620
 21
209.959999
  0
LINE
  8
1
 62
7
  6
CONTINUOUS
 10
161.510620
 20
215.360001
 11
159.710620
 21
215.360001
  0
LINE
  8
1
 62
7
  6
CONTINUOUS
 10
161.510620
 20
217.079999
 11
161.510620
 21
215.360001
  0
LINE
  8
1
 62
7
  6
CONTINUOUS
 10
155.890620
 20
217.079999
 11
161.510620
 21
217.079999
  0
LINE
  8
1
 62
7
  6
CONTINUOUS
 10
155.890620
 20
217.079999
 11
155.890620
 21
215.360001
  0
LINE
  8
1
 62
7
  6
CONTINUOUS
 10
149.850620
 20
217.079999
 11
153.470620
 21
217.079999
  0
LINE
  8
1
 62
7
  6
CONTINUOUS
 10
153.010621
 20
215.360001
 11
149.850620
 21
215.360001
  0
LINE
  8
1
 62
7
  6
CONTINUOUS
 10
149.270621
 20
213.920001
 11
153.010621
 21
213.920001
  0
LINE
  8
1
 62
7
  6
CONTINUOUS
 10
149.850620
 20
215.360001
 11
149.850620
 21
217.079999
  0
LINE
  8
1
 62
7
  6
CONTINUOUS
 10
153.470620
 20
209.959999
 11
149.270621
 21
213.920001
  0
LINE
  8
1
 62
7
  6
CONTINUOUS
 10
153.470620
 20
209.959999
 11
156.110619
 21
209.959999
  0
LINE
  8
1
 62
7
  6
CONTINUOUS
 10
149.270621
 20
209.959999
 11
149.270621
 21
224.080002
  0
LINE
  8
1
 62
7
  6
CONTINUOUS
 10
143.290620
 20
209.959999
 11
149.270621
 21
209.959999
  0
LINE
  8
1
 62
7
  6
CONTINUOUS
 10
143.290620
 20
212.860001
 11
143.290620
 21
209.959999
  0
LINE
  8
1
 62
7
  6
CONTINUOUS
 10
146.250619
 20
212.860001
 11
143.290620
 21
212.860001
  0
LINE
  8
1
 62
7
  6
CONTINUOUS
 10
146.250619
 20
216.860000
 11
146.250619
 21
212.860001
  0
LINE
  8
1
 62
7
  6
CONTINUOUS
 10
139.550620
 20
209.959999
 11
146.250619
 21
216.860000
  0
LINE
  8
1
 62
7
  6
CONTINUOUS
 10
135.230620
 20
209.959999
 11
139.550620
 21
209.959999
  0
LINE
  8
1
 62
7
  6
CONTINUOUS
 10
149.270621
 20
224.080002
 11
135.230620
 21
209.959999
  0
ARC
  8
1
 62
7
  6
CONTINUOUS
 10
153.470620
 20
214.740000
 40
2.339998
 50
-89.020680
 51
90.000000
  0
ARC
  8
1
 62
7
  6
CONTINUOUS
 10
153.010621
 20
214.639999
 40
0.720001
 50
-90.000000
 51
90.000000
  0
LINE
  8
1
 62
7
  6
CONTINUOUS
 10
116.150619
 20
333.960001
 11
116.150619
 21
305.960000
  0
LINE
  8
1
 62
7
  6
CONTINUOUS
 10
120.150619
 20
305.960000
 11
116.150619
 21
305.960000
  0
LINE
  8
1
 62
7
  6
CONTINUOUS
 10
153.150620
 20
333.960001
 11
153.150620
 21
305.960000
  0
LINE
  8
1
 62
7
  6
CONTINUOUS
 10
157.150620
 20
305.960000
 11
153.150620
 21
305.960000
  0
LINE
  8
1
 62
7
  6
CONTINUOUS
 10
168.130620
 20
313.459999
 11
179.190620
 21
317.459999
  0
LINE
  8
1
 62
7
  6
CONTINUOUS
 10
179.150619
 20
317.959999
 11
168.150619
 21
313.959999
  0
LINE
  8
1
 62
7
  6
CONTINUOUS
 10
168.230618
 20
314.459999
 11
179.130620
 21
318.459999
  0
LINE
  8
1
 62
7
  6
CONTINUOUS
 10
179.130620
 20
338.460001
 11
168.230618
 21
334.460001
  0
LINE
  8
1
 62
7
  6
CONTINUOUS
 10
179.130620
 20
338.960001
 11
168.130620
 21
334.960001
  0
LINE
  8
1
 62
7
  6
CONTINUOUS
 10
168.190620
 20
335.460001
 11
179.130620
 21
339.460001
  0
LINE
  8
1
 62
7
  6
CONTINUOUS
 10
164.150619
 20
338.460001
 11
179.130620
 21
338.460001
  0
LINE
  8
1
 62
7
  6
CONTINUOUS
 10
179.130620
 20
338.960001
 11
164.150619
 21
338.960001
  0
LINE
  8
1
 62
7
  6
CONTINUOUS
 10
164.150619
 20
339.460001
 11
179.130620
 21
339.460001
  0
LINE
  8
1
 62
7
  6
CONTINUOUS
 10
178.650619
 20
339.960001
 11
178.650619
 21
316.959999
  0
LINE
  8
1
 62
7
  6
CONTINUOUS
 10
178.150619
 20
316.959999
 11
178.150619
 21
339.480000
  0
LINE
  8
1
 62
7
  6
CONTINUOUS
 10
177.650619
 20
337.960001
 11
177.650619
 21
316.959999
  0
LINE
  8
1
 62
7
  6
CONTINUOUS
 10
169.650619
 20
335.960001
 11
169.650619
 21
314.959999
  0
LINE
  8
1
 62
7
  6
CONTINUOUS
 10
169.150619
 20
314.959999
 11
169.150619
 21
335.960001
  0
LINE
  8
1
 62
7
  6
CONTINUOUS
 10
168.650619
 20
335.960001
 11
168.650619
 21
314.959999
  0
LINE
  8
1
 62
7
  6
CONTINUOUS
 10
166.150619
 20
337.960001
 11
166.150619
 21
339.960001
  0
LINE
  8
1
 62
7
  6
CONTINUOUS
 10
166.150619
 20
316.959999
 11
166.150619
 21
318.959999
  0
LINE
  8
1
 62
7
  6
CONTINUOUS
 10
165.650619
 20
339.960001
 11
165.650619
 21
316.959999
  0
LINE
  8
1
 62
7
  6
CONTINUOUS
 10
165.150619
 20
316.959999
 11
165.150619
 21
339.960001
  0
LINE
  8
1
 62
7
  6
CONTINUOUS
 10
164.650619
 20
339.960001
 11
164.650619
 21
316.959999
  0
CIRCLE
  8
1
 62
7
  6
CONTINUOUS
 10
172.150619
 20
325.939999
 40
0.199999
  0
CIRCLE
  8
1
 62
7
  6
CONTINUOUS
 10
172.150619
 20
325.939999
 40
0.500000
  0
LINE
  8
1
 62
7
  6
CONTINUOUS
 10
177.150619
 20
316.959999
 11
177.150619
 21
337.960001
  0
LINE
  8
1
 62
7
  6
CONTINUOUS
 10
170.150619
 20
334.840001
 11
170.150619
 21
315.459999
  0
LINE
  8
1
 62
7
  6
CONTINUOUS
 10
168.150619
 20
314.959999
 11
179.150619
 21
318.959999
  0
LINE
  8
1
 62
7
  6
CONTINUOUS
 10
168.150619
 20
333.960001
 11
179.150619
 21
337.960001
  0
LINE
  8
1
 62
7
  6
CONTINUOUS
 10
164.150619
 20
316.959999
 11
168.150619
 21
316.959999
  0
LINE
  8
1
 62
7
  6
CONTINUOUS
 10
166.150619
 20
337.960001
 11
166.150619
 21
318.959999
  0
LINE
  8
1
 62
7
  6
CONTINUOUS
 10
166.150619
 20
318.959999
 11
168.150619
 21
318.959999
  0
LINE
  8
1
 62
7
  6
CONTINUOUS
 10
166.150619
 20
337.960001
 11
173.490621
 21
337.960001
  0
LINE
  8
1
 62
7
  6
CONTINUOUS
 10
168.150619
 20
335.960001
 11
168.150619
 21
312.959999
  0
LINE
  8
1
 62
7
  6
CONTINUOUS
 10
168.150619
 20
312.959999
 11
179.150619
 21
316.959999
  0
LINE
  8
1
 62
7
  6
CONTINUOUS
 10
179.150619
 20
339.960001
 11
168.150619
 21
335.960001
  0
LINE
  8
1
 62
7
  6
CONTINUOUS
 10
164.150619
 20
339.960001
 11
164.150619
 21
316.959999
  0
LINE
  8
1
 62
7
  6
CONTINUOUS
 10
179.150619
 20
339.960001
 11
164.150619
 21
339.960001
  0
LINE
  8
1
 62
7
  6
CONTINUOUS
 10
179.150619
 20
316.959999
 11
179.150619
 21
339.960001
  0
LINE
  8
1
 62
7
  6
CONTINUOUS
 10
137.650621
 20
331.960001
 11
137.650621
 21
329.960001
  0
LINE
  8
1
 62
7
  6
CONTINUOUS
 10
137.150621
 20
329.960001
 11
137.150621
 21
331.960001
  0
LINE
  8
1
 62
7
  6
CONTINUOUS
 10
136.650621
 20
331.960001
 11
136.650621
 21
329.960001
  0
ARC
  8
1
 62
7
  6
CONTINUOUS
 10
132.150618
 20
331.960001
 40
5.500000
 50
0.000000
 51
180.000000
  0
ARC
  8
1
 62
7
  6
CONTINUOUS
 10
132.150618
 20
331.960001
 40
5.000000
 50
0.000000
 51
180.000000
  0
ARC
  8
1
 62
7
  6
CONTINUOUS
 10
132.150618
 20
331.960001
 40
4.500000
 50
0.000000
 51
180.000000
  0
LINE
  8
1
 62
7
  6
CONTINUOUS
 10
124.650619
 20
315.459999
 11
139.650621
 21
315.459999
  0
LINE
  8
1
 62
7
  6
CONTINUOUS
 10
124.650619
 20
329.460001
 11
124.650619
 21
315.459999
  0
LINE
  8
1
 62
7
  6
CONTINUOUS
 10
139.650621
 20
329.460001
 11
124.650619
 21
329.460001
  0
LINE
  8
1
 62
7
  6
CONTINUOUS
 10
139.650621
 20
315.459999
 11
139.650621
 21
329.460001
  0
LINE
  8
1
 62
7
  6
CONTINUOUS
 10
139.150621
 20
328.960001
 11
125.150619
 21
328.960001
  0
LINE
  8
1
 62
7
  6
CONTINUOUS
 10
139.150621
 20
315.959999
 11
139.150621
 21
328.960001
  0
LINE
  8
1
 62
7
  6
CONTINUOUS
 10
125.150619
 20
315.959999
 11
139.150621
 21
315.959999
  0
LINE
  8
1
 62
7
  6
CONTINUOUS
 10
125.150619
 20
328.960001
 11
125.150619
 21
315.959999
  0
LINE
  8
1
 62
7
  6
CONTINUOUS
 10
125.650619
 20
316.459999
 11
138.650621
 21
316.459999
  0
LINE
  8
1
 62
7
  6
CONTINUOUS
 10
125.650619
 20
328.460001
 11
125.650619
 21
316.459999
  0
LINE
  8
1
 62
7
  6
CONTINUOUS
 10
138.650621
 20
328.460001
 11
125.650619
 21
328.460001
  0
LINE
  8
1
 62
7
  6
CONTINUOUS
 10
138.650621
 20
316.459999
 11
138.650621
 21
328.460001
  0
LINE
  8
1
 62
7
  6
CONTINUOUS
 10
132.150618
 20
322.459999
 11
132.150618
 21
319.959999
  0
LINE
  8
1
 62
7
  6
CONTINUOUS
 10
131.650618
 20
319.959999
 11
131.650618
 21
322.459999
  0
LINE
  8
1
 62
7
  6
CONTINUOUS
 10
132.650618
 20
322.459999
 11
132.650618
 21
319.959999
  0
ARC
  8
1
 62
7
  6
CONTINUOUS
 10
132.150618
 20
319.959999
 40
0.500000
 50
180.000000
 51
0.000000
  0
CIRCLE
  8
1
 62
7
  6
CONTINUOUS
 10
132.150618
 20
323.959998
 40
0.399999
  0
CIRCLE
  8
1
 62
7
  6
CONTINUOUS
 10
132.150618
 20
323.959998
 40
1.500000
  0
CIRCLE
  8
1
 62
7
  6
CONTINUOUS
 10
132.150618
 20
323.959998
 40
1.000000
  0
LINE
  8
1
 62
7
  6
CONTINUOUS
 10
133.150618
 20
319.959999
 11
133.150618
 21
322.459999
  0
LINE
  8
1
 62
7
  6
CONTINUOUS
 10
131.150618
 20
322.459999
 11
131.150618
 21
319.959999
  0
ARC
  8
1
 62
7
  6
CONTINUOUS
 10
132.150618
 20
319.959999
 40
1.000000
 50
180.000000
 51
0.000000
  0
CIRCLE
  8
1
 62
7
  6
CONTINUOUS
 10
132.150618
 20
323.959998
 40
2.000000
  0
LINE
  8
1
 62
7
  6
CONTINUOUS
 10
136.150621
 20
331.960001
 11
136.150621
 21
329.960001
  0
LINE
  8
1
 62
7
  6
CONTINUOUS
 10
138.150621
 20
331.960001
 11
138.150621
 21
329.960001
  0
LINE
  8
1
 62
7
  6
CONTINUOUS
 10
126.150619
 20
331.960001
 11
128.150618
 21
331.960001
  0
ARC
  8
1
 62
7
  6
CONTINUOUS
 10
132.150618
 20
331.960001
 40
4.000000
 50
0.000000
 51
180.000000
  0
ARC
  8
1
 62
7
  6
CONTINUOUS
 10
132.150618
 20
331.960001
 40
6.000000
 50
0.000000
 51
180.000000
  0
LINE
  8
1
 62
7
  6
CONTINUOUS
 10
126.150619
 20
316.959999
 11
138.150621
 21
316.959999
  0
LINE
  8
1
 62
7
  6
CONTINUOUS
 10
126.150619
 20
327.960001
 11
126.150619
 21
316.959999
  0
LINE
  8
1
 62
7
  6
CONTINUOUS
 10
138.150621
 20
327.960001
 11
126.150619
 21
327.960001
  0
LINE
  8
1
 62
7
  6
CONTINUOUS
 10
138.150621
 20
316.959999
 11
138.150621
 21
327.960001
  0
LINE
  8
1
 62
7
  6
CONTINUOUS
 10
124.150619
 20
314.959999
 11
140.150621
 21
314.959999
  0
LINE
  8
1
 62
7
  6
CONTINUOUS
 10
124.150619
 20
329.960001
 11
124.150619
 21
314.959999
  0
LINE
  8
1
 62
7
  6
CONTINUOUS
 10
140.150621
 20
329.960001
 11
124.150619
 21
329.960001
  0
LINE
  8
1
 62
7
  6
CONTINUOUS
 10
140.150621
 20
314.959999
 11
140.150621
 21
329.960001
  0
CIRCLE
  8
1
 62
7
  6
CONTINUOUS
 10
153.150620
 20
337.960001
 40
4.000000
  0
CIRCLE
  8
1
 62
7
  6
CONTINUOUS
 10
116.150619
 20
337.960001
 40
4.000000
  0
LINE
  8
1
 62
7
  6
CONTINUOUS
 10
183.150618
 20
297.960000
 11
115.150619
 21
297.960000
  0
LINE
  8
1
 62
7
  6
CONTINUOUS
 10
189.150621
 20
338.960001
 11
189.150621
 21
303.960000
  0
LINE
  8
1
 62
7
  6
CONTINUOUS
 10
183.150618
 20
344.960000
 11
115.150619
 21
344.960000
  0
LINE
  8
1
 62
7
  6
CONTINUOUS
 10
109.150620
 20
303.960000
 11
109.150620
 21
338.960001
  0
LINE
  8
1
 62
7
  6
CONTINUOUS
 10
116.150619
 20
369.959999
 11
120.150619
 21
369.959999
  0
LINE
  8
1
 62
7
  6
CONTINUOUS
 10
116.150619
 20
359.959999
 11
116.150619
 21
369.959999
  0
LINE
  8
1
 62
7
  6
CONTINUOUS
 10
143.150621
 20
378.960001
 11
115.150619
 21
378.960001
  0
LINE
  8
1
 62
7
  6
CONTINUOUS
 10
149.150620
 20
354.960000
 11
149.150620
 21
372.959999
  0
LINE
  8
1
 62
7
  6
CONTINUOUS
 10
115.150619
 20
348.960000
 11
143.150621
 21
348.960000
  0
LINE
  8
1
 62
7
  6
CONTINUOUS
 10
109.150620
 20
354.960000
 11
109.150620
 21
372.959999
  0
ARC
  8
1
 62
7
  6
CONTINUOUS
 10
183.150618
 20
303.960000
 40
6.000000
 50
-90.000000
 51
0.000000
  0
ARC
  8
1
 62
7
  6
CONTINUOUS
 10
183.150618
 20
338.960001
 40
6.000000
 50
0.000000
 51
90.000000
  0
ARC
  8
1
 62
7
  6
CONTINUOUS
 10
115.150619
 20
303.960000
 40
6.000000
 50
180.000000
 51
-90.000000
  0
ARC
  8
1
 62
7
  6
CONTINUOUS
 10
115.150619
 20
338.960001
 40
6.000000
 50
90.000000
 51
180.000000
  0
CIRCLE
  8
1
 62
7
  6
CONTINUOUS
 10
116.150619
 20
355.960000
 40
4.000000
  0
ARC
  8
1
 62
7
  6
CONTINUOUS
 10
143.150621
 20
372.959999
 40
6.000000
 50
0.000000
 51
90.000000
  0
ARC
  8
1
 62
7
  6
CONTINUOUS
 10
143.150621
 20
354.960000
 40
6.000000
 50
-90.000000
 51
0.000000
  0
ARC
  8
1
 62
7
  6
CONTINUOUS
 10
115.150619
 20
354.960000
 40
6.000000
 50
180.000000
 51
-90.000000
  0
ARC
  8
1
 62
7
  6
CONTINUOUS
 10
115.150619
 20
372.959999
 40
6.000000
 50
90.000000
 51
180.000000
  0
LINE
  8
1
 62
7
  6
CONTINUOUS
 10
79.150621
 20
443.960003
 11
219.150619
 21
443.960003
  0
LINE
  8
1
 62
7
  6
CONTINUOUS
 10
79.150621
 20
447.960003
 11
79.150621
 21
370.587538
  0
LINE
  8
1
 62
7
  6
CONTINUOUS
 10
219.150619
 20
447.960003
 11
219.150619
 21
370.587538
  0
LINE
  8
1
 62
7
  6
CONTINUOUS
 10
79.150621
 20
443.960003
 11
83.787065
 21
445.202334
  0
LINE
  8
1
 62
7
  6
CONTINUOUS
 10
79.150621
 20
443.960003
 11
83.787065
 21
442.717671
  0
LINE
  8
1
 62
7
  6
CONTINUOUS
 10
219.150619
 20
443.960003
 11
214.514175
 21
442.717671
  0
LINE
  8
1
 62
7
  6
CONTINUOUS
 10
219.150619
 20
443.960003
 11
214.514175
 21
445.202334
  0
TEXT
  8
1
 62
7
  6
CONTINUOUS
 10
145.950620
 20
444.960003
 40
6.000000
 41
0.566667
  1
70
  7
KANJI
 50
0.000000
 51
0.000000
  0
LINE
  8
1
 62
7
  6
CONTINUOUS
 10
249.142510
 20
173.960001
 11
249.142510
 21
413.959999
  0
LINE
  8
1
 62
7
  6
CONTINUOUS
 10
253.142510
 20
173.960001
 11
181.309001
 21
173.960001
  0
LINE
  8
1
 62
7
  6
CONTINUOUS
 10
253.142510
 20
413.959999
 11
181.366595
 21
413.959999
  0
LINE
  8
1
 62
7
  6
CONTINUOUS
 10
249.142510
 20
173.960001
 11
247.900179
 21
178.596445
  0
LINE
  8
1
 62
7
  6
CONTINUOUS
 10
249.142510
 20
173.960001
 11
250.384841
 21
178.596445
  0
LINE
  8
1
 62
7
  6
CONTINUOUS
 10
249.142510
 20
413.959999
 11
250.384841
 21
409.323555
  0
LINE
  8
1
 62
7
  6
CONTINUOUS
 10
249.142510
 20
413.959999
 11
247.900179
 21
409.323555
  0
TEXT
  8
1
 62
7
  6
CONTINUOUS
 10
248.142510
 20
289.060000
 40
6.000000
 41
0.566667
  1
120
  7
KANJI
 50
90.000000
 51
0.000000
  0
LINE
  8
1
 62
7
  6
CONTINUOUS
 10
318.394933
 20
173.960001
 11
321.459999
 21
173.960001
  0
LINE
  8
1
 62
7
  6
CONTINUOUS
 10
321.459999
 20
413.959999
 11
318.459999
 21
413.959999
  0
LINE
  8
1
 62
7
  6
CONTINUOUS
 10
321.459999
 20
173.960001
 11
321.459999
 21
413.959999
  0
LINE
  8
1
 62
7
  6
CONTINUOUS
 10
318.459999
 20
413.959999
 11
318.459999
 21
173.960001
  0
LINE
  8
1
 62
7
  6
CONTINUOUS
 10
307.620001
 20
199.940001
 11
307.760001
 21
198.920002
  0
LINE
  8
1
 62
7
  6
CONTINUOUS
 10
307.760001
 20
198.920002
 11
307.919999
 21
197.920002
  0
LINE
  8
1
 62
7
  6
CONTINUOUS
 10
307.919999
 20
197.920002
 11
308.099999
 21
196.900000
  0
LINE
  8
1
 62
7
  6
CONTINUOUS
 10
308.099999
 20
196.900000
 11
308.280000
 21
195.900000
  0
LINE
  8
1
 62
7
  6
CONTINUOUS
 10
308.280000
 20
195.900000
 11
308.479999
 21
194.900000
  0
LINE
  8
1
 62
7
  6
CONTINUOUS
 10
308.479999
 20
194.900000
 11
308.680001
 21
193.900000
  0
LINE
  8
1
 62
7
  6
CONTINUOUS
 10
308.680001
 20
193.900000
 11
308.919999
 21
192.920002
  0
LINE
  8
1
 62
7
  6
CONTINUOUS
 10
308.919999
 20
192.920002
 11
309.180001
 21
191.940001
  0
LINE
  8
1
 62
7
  6
CONTINUOUS
 10
309.180001
 20
191.940001
 11
309.460000
 21
190.960000
  0
LINE
  8
1
 62
7
  6
CONTINUOUS
 10
309.460000
 20
190.960000
 11
310.060001
 21
189.160000
  0
LINE
  8
1
 62
7
  6
CONTINUOUS
 10
310.060001
 20
189.160000
 11
310.760000
 21
187.380001
  0
LINE
  8
1
 62
7
  6
CONTINUOUS
 10
310.760000
 20
187.380001
 11
311.560001
 21
185.640001
  0
LINE
  8
1
 62
7
  6
CONTINUOUS
 10
307.460000
 20
200.960000
 11
307.620001
 21
199.940001
  0
LINE
  8
1
 62
7
  6
CONTINUOUS
 10
307.460000
 20
200.960000
 11
307.460000
 21
386.960001
  0
LINE
  8
1
 62
7
  6
CONTINUOUS
 10
311.560001
 20
185.640001
 11
312.400000
 21
183.919999
  0
LINE
  8
1
 62
7
  6
CONTINUOUS
 10
312.400000
 20
183.919999
 11
313.320000
 21
182.239999
  0
LINE
  8
1
 62
7
  6
CONTINUOUS
 10
313.320000
 20
182.239999
 11
314.279999
 21
180.560002
  0
LINE
  8
1
 62
7
  6
CONTINUOUS
 10
314.279999
 20
180.560002
 11
315.300001
 21
178.900001
  0
LINE
  8
1
 62
7
  6
CONTINUOUS
 10
315.300001
 20
178.900001
 11
318.394933
 21
173.960001
  0
LINE
  8
1
 62
7
  6
CONTINUOUS
 10
307.460000
 20
386.960001
 11
307.620001
 21
387.980000
  0
LINE
  8
1
 62
7
  6
CONTINUOUS
 10
307.620001
 20
387.980000
 11
307.760001
 21
388.999999
  0
LINE
  8
1
 62
7
  6
CONTINUOUS
 10
307.760001
 20
388.999999
 11
307.919999
 21
389.999999
  0
LINE
  8
1
 62
7
  6
CONTINUOUS
 10
307.919999
 20
389.999999
 11
308.099999
 21
391.020001
  0
LINE
  8
1
 62
7
  6
CONTINUOUS
 10
308.099999
 20
391.020001
 11
308.280000
 21
392.020001
  0
LINE
  8
1
 62
7
  6
CONTINUOUS
 10
308.280000
 20
392.020001
 11
308.479999
 21
393.020001
  0
LINE
  8
1
 62
7
  6
CONTINUOUS
 10
308.479999
 20
393.020001
 11
308.680001
 21
394.020001
  0
LINE
  8
1
 62
7
  6
CONTINUOUS
 10
308.680001
 20
394.020001
 11
308.919999
 21
394.999999
  0
LINE
  8
1
 62
7
  6
CONTINUOUS
 10
308.919999
 20
394.999999
 11
309.180001
 21
395.979999
  0
LINE
  8
1
 62
7
  6
CONTINUOUS
 10
309.180001
 20
395.979999
 11
309.460000
 21
396.960000
  0
LINE
  8
1
 62
7
  6
CONTINUOUS
 10
309.460000
 20
396.960000
 11
310.060001
 21
398.760001
  0
LINE
  8
1
 62
7
  6
CONTINUOUS
 10
310.060001
 20
398.760001
 11
310.760000
 21
400.539999
  0
LINE
  8
1
 62
7
  6
CONTINUOUS
 10
310.760000
 20
400.539999
 11
311.560001
 21
402.280000
  0
LINE
  8
1
 62
7
  6
CONTINUOUS
 10
311.560001
 20
402.280000
 11
312.400000
 21
404.000001
  0
LINE
  8
1
 62
7
  6
CONTINUOUS
 10
312.400000
 20
404.000001
 11
313.320000
 21
405.680001
  0
LINE
  8
1
 62
7
  6
CONTINUOUS
 10
313.320000
 20
405.680001
 11
314.279999
 21
407.359999
  0
LINE
  8
1
 62
7
  6
CONTINUOUS
 10
314.279999
 20
407.359999
 11
315.300001
 21
409.020000
  0
LINE
  8
1
 62
7
  6
CONTINUOUS
 10
315.300001
 20
409.020000
 11
316.339999
 21
410.680001
  0
LINE
  8
1
 62
7
  6
CONTINUOUS
 10
316.339999
 20
410.680001
 11
317.399999
 21
412.320000
  0
LINE
  8
1
 62
7
  6
CONTINUOUS
 10
317.399999
 20
412.320000
 11
318.459999
 21
413.959999
  0
LINE
  8
1
 62
7
  6
CONTINUOUS
 10
307.460000
 20
443.960003
 11
321.459999
 21
443.960003
  0
LINE
  8
1
 62
7
  6
CONTINUOUS
 10
307.460000
 20
447.960003
 11
307.460000
 21
395.710600
  0
LINE
  8
1
 62
7
  6
CONTINUOUS
 10
321.459999
 20
447.960003
 11
321.459999
 21
418.736000
  0
LINE
  8
1
 62
7
  6
CONTINUOUS
 10
307.460000
 20
443.960003
 11
312.096444
 21
445.202334
  0
LINE
  8
1
 62
7
  6
CONTINUOUS
 10
307.460000
 20
443.960003
 11
312.096444
 21
442.717671
  0
LINE
  8
1
 62
7
  6
CONTINUOUS
 10
321.459999
 20
443.960003
 11
316.823555
 21
442.717671
  0
LINE
  8
1
 62
7
  6
CONTINUOUS
 10
321.459999
 20
443.960003
 11
316.823555
 21
445.202334
  0
TEXT
  8
1
 62
7
  6
CONTINUOUS
 10
312.960000
 20
444.960003
 40
6.000000
 41
0.566667
  1
7
  7
KANJI
 50
0.000000
 51
0.000000
  0
LINE
  8
1
 62
7
  6
CONTINUOUS
 10
321.459999
 20
443.960003
 11
337.460001
 21
443.960003
  0
LINE
  8
1
 62
7
  6
CONTINUOUS
 10
337.460001
 20
447.960003
 11
337.460001
 21
366.663400
  0
LINE
  8
1
 62
7
  6
CONTINUOUS
 10
321.459999
 20
443.960003
 11
326.096443
 21
445.202334
  0
LINE
  8
1
 62
7
  6
CONTINUOUS
 10
321.459999
 20
443.960003
 11
326.096443
 21
442.717671
  0
LINE
  8
1
 62
7
  6
CONTINUOUS
 10
337.460001
 20
443.960003
 11
332.823557
 21
442.717671
  0
LINE
  8
1
 62
7
  6
CONTINUOUS
 10
337.460001
 20
443.960003
 11
332.823557
 21
445.202334
  0
TEXT
  8
1
 62
7
  6
CONTINUOUS
 10
327.960000
 20
444.960003
 40
6.000000
 41
0.566667
  1
8
  7
KANJI
 50
0.000000
 51
0.000000
  0
LINE
  8
1
 62
7
  6
DASHDOT
 10
297.469382
 20
293.959998
 11
357.069382
 21
293.959998
  0
LINE
  8
1
 62
7
  6
CONTINUOUS
 10
337.460001
 20
318.719998
 11
337.460001
 21
314.719998
  0
LINE
  8
1
 62
7
  6
CONTINUOUS
 10
330.459999
 20
310.719999
 11
321.459999
 21
310.719999
  0
LINE
  8
1
 62
7
  6
CONTINUOUS
 10
321.459999
 20
322.720001
 11
330.459999
 21
322.720001
  0
LINE
  8
1
 62
7
  6
CONTINUOUS
 10
337.460001
 20
356.719999
 11
337.460001
 21
352.719999
  0
LINE
  8
1
 62
7
  6
CONTINUOUS
 10
330.459999
 20
348.720000
 11
321.459999
 21
348.720000
  0
LINE
  8
1
 62
7
  6
CONTINUOUS
 10
321.459999
 20
360.719999
 11
330.459999
 21
360.719999
  0
ARC
  8
1
 62
7
  6
CONTINUOUS
 10
333.459998
 20
314.719998
 40
4.000000
 50
-90.000000
 51
0.000000
  0
ARC
  8
1
 62
7
  6
CONTINUOUS
 10
333.459998
 20
318.719998
 40
4.000000
 50
0.000000
 51
90.000000
  0
ARC
  8
1
 62
7
  6
CONTINUOUS
 10
333.459998
 20
352.719999
 40
4.000000
 50
-90.000000
 51
0.000000
  0
ARC
  8
1
 62
7
  6
CONTINUOUS
 10
333.459998
 20
356.719999
 40
4.000000
 50
0.000000
 51
90.000000
  0
LINE
  8
1
 62
7
  6
CONTINUOUS
 10
333.459998
 20
362.719999
 11
330.459999
 21
362.719999
  0
LINE
  8
1
 62
7
  6
CONTINUOUS
 10
330.459999
 20
230.719999
 11
333.459998
 21
230.719999
  0
LINE
  8
1
 62
7
  6
CONTINUOUS
 10
330.459999
 20
362.719999
 11
330.459999
 21
230.718396
  0
LINE
  8
1
 62
7
  6
CONTINUOUS
 10
333.459998
 20
230.713255
 11
333.459998
 21
362.719999
  0
LINE
  8
1
 62
7
  6
CONTINUOUS
 10
337.460001
 20
262.719999
 11
337.460001
 21
258.719999
  0
LINE
  8
1
 62
7
  6
CONTINUOUS
 10
330.459999
 20
254.720000
 11
321.459999
 21
254.720000
  0
LINE
  8
1
 62
7
  6
CONTINUOUS
 10
321.459999
 20
266.719999
 11
330.459999
 21
266.719999
  0
ARC
  8
1
 62
7
  6
CONTINUOUS
 10
333.459998
 20
258.719999
 40
4.000000
 50
-90.000000
 51
0.000000
  0
ARC
  8
1
 62
7
  6
CONTINUOUS
 10
333.459998
 20
262.719999
 40
4.000000
 50
0.000000
 51
90.000000
  0
ARC
  8
1
 62
7
  6
CONTINUOUS
 10
526.418194
 20
196.033152
 40
19.999999
 50
-84.832085
 51
-4.750298
  0
ARC
  8
1
 62
7
  6
CONTINUOUS
 10
-652.020128
 20
293.960000
 40
1202.500125
 50
-4.750298
 51
4.750298
  0
ARC
  8
1
 62
7
  6
CONTINUOUS
 10
526.418194
 20
391.886848
 40
19.999999
 50
4.750298
 51
84.832085
  0
ARC
  8
1
 62
7
  6
CONTINUOUS
 10
480.479999
 20
-116.040038
 40
530.000040
 50
84.832085
 51
95.167915
  0
ARC
  8
1
 62
7
  6
CONTINUOUS
 10
1612.980125
 20
293.960000
 40
1202.500125
 50
175.249702
 51
-175.325389
  0
ARC
  8
1
 62
7
  6
CONTINUOUS
 10
434.541804
 20
391.886848
 40
19.999999
 50
95.167915
 51
175.249702
  0
ARC
  8
1
 62
7
  6
CONTINUOUS
 10
480.479999
 20
703.960038
 40
530.000040
 50
-92.506192
 51
-92.268154
  0
ARC
  8
1
 62
7
  6
CONTINUOUS
 10
480.479999
 20
703.960038
 40
530.000040
 50
-95.167915
 51
-93.350523
  0
ARC
  8
1
 62
7
  6
CONTINUOUS
 10
480.479999
 20
703.960038
 40
530.000040
 50
-93.047355
 51
-92.809213
  0
ARC
  8
1
 62
7
  6
CONTINUOUS
 10
480.479999
 20
703.960038
 40
530.000040
 50
-86.687487
 51
-84.832085
  0
ARC
  8
1
 62
7
  6
CONTINUOUS
 10
480.479999
 20
703.960038
 40
530.000040
 50
-87.228778
 51
-86.990642
  0
ARC
  8
1
 62
7
  6
CONTINUOUS
 10
480.479999
 20
703.960038
 40
530.000040
 50
-91.965252
 51
-88.098334
  0
ARC
  8
1
 62
7
  6
CONTINUOUS
 10
480.479999
 20
703.960038
 40
530.000040
 50
-87.769822
 51
-87.531789
  0
LINE
  8
1
 62
7
  6
CONTINUOUS
 10
354.936234
 20
104.356200
 11
373.936234
 21
104.356200
  0
LINE
  8
1
 62
7
  6
CONTINUOUS
 10
354.936234
 20
129.556200
 11
354.936234
 21
104.356200
  0
LINE
  8
1
 62
7
  6
CONTINUOUS
 10
373.936234
 20
129.556200
 11
354.936234
 21
129.556200
  0
LINE
  8
1
 62
7
  6
CONTINUOUS
 10
397.136234
 20
104.356200
 11
393.136234
 21
104.356200
  0
LINE
  8
1
 62
7
  6
CONTINUOUS
 10
397.136234
 20
102.356200
 11
397.136234
 21
104.356200
  0
LINE
  8
1
 62
7
  6
CONTINUOUS
 10
420.336234
 20
102.356200
 11
397.136234
 21
102.356200
  0
LINE
  8
1
 62
7
  6
CONTINUOUS
 10
420.336234
 20
129.556200
 11
420.336234
 21
102.356200
  0
LINE
  8
1
 62
7
  6
CONTINUOUS
 10
393.136234
 20
129.556200
 11
420.336234
 21
129.556200
  0
LINE
  8
1
 62
7
  6
CONTINUOUS
 10
393.136234
 20
102.356200
 11
393.136234
 21
133.156200
  0
LINE
  8
1
 62
7
  6
CONTINUOUS
 10
373.936234
 20
102.356200
 11
393.136234
 21
102.356200
  0
LINE
  8
1
 62
7
  6
CONTINUOUS
 10
373.936234
 20
133.156200
 11
373.936234
 21
102.356200
  0
LINE
  8
1
 62
7
  6
CONTINUOUS
 10
373.936234
 20
133.156200
 11
393.136234
 21
133.156200
  0
LINE
  8
1
 62
7
  6
CONTINUOUS
 10
429.505219
 20
124.029898
 11
420.336234
 21
124.029898
  0
LINE
  8
1
 62
7
  6
CONTINUOUS
 10
429.505219
 20
121.229849
 11
420.076005
 21
121.229849
  0
LINE
  8
1
 62
7
  6
CONTINUOUS
 10
322.031219
 20
121.225193
 11
354.936234
 21
121.225193
  0
LINE
  8
1
 62
7
  6
CONTINUOUS
 10
323.715664
 20
124.025211
 11
354.936234
 21
124.025211
  0
LINE
  8
1
 62
7
  6
CONTINUOUS
 10
320.540241
 20
119.025211
 11
354.936234
 21
119.025211
  0
LINE
  8
1
 62
7
  6
CONTINUOUS
 10
319.272236
 20
116.225193
 11
354.936234
 21
116.225193
  0
LINE
  8
1
 62
7
  6
CONTINUOUS
 10
319.033196
 20
114.029867
 11
354.936234
 21
114.029867
  0
LINE
  8
1
 62
7
  6
CONTINUOUS
 10
319.583657
 20
111.229849
 11
354.936234
 21
111.229849
  0
LINE
  8
1
 62
7
  6
CONTINUOUS
 10
420.226019
 20
99.661208
 11
420.226019
 21
86.890654
  0
LINE
  8
1
 62
7
  6
CONTINUOUS
 10
354.936234
 20
99.661208
 11
354.936234
 21
86.890654
  0
ARC
  8
1
 62
7
  6
CONTINUOUS
 10
434.541804
 20
196.033152
 40
19.999999
 50
-179.791075
 51
-95.167915
  0
ARC
  8
1
 62
7
  6
CONTINUOUS
 10
478.685628
 20
143.636826
 40
27.418860
 50
-90.000000
 51
0.000000
  0
ARC
  8
1
 62
7
  6
CONTINUOUS
 10
478.685628
 20
143.636826
 40
32.418860
 50
-90.000000
 51
0.000000
  0
ARC
  8
1
 62
7
  6
CONTINUOUS
 10
478.685628
 20
143.636826
 40
29.618872
 50
-90.000000
 51
-0.000000
  0
ARC
  8
1
 62
7
  6
CONTINUOUS
 10
478.685628
 20
143.636826
 40
24.618872
 50
-90.000000
 51
-0.000000
  0
ARC
  8
1
 62
7
  6
CONTINUOUS
 10
478.685628
 20
143.636826
 40
22.418860
 50
-90.000000
 51
0.000000
  0
ARC
  8
1
 62
7
  6
CONTINUOUS
 10
478.685628
 20
143.636826
 40
19.618872
 50
-90.000000
 51
-0.000000
  0
ARC
  8
1
 62
7
  6
CONTINUOUS
 10
429.885640
 20
143.636826
 40
27.418860
 50
-90.000000
 51
0.000000
  0
ARC
  8
1
 62
7
  6
CONTINUOUS
 10
429.885640
 20
143.636826
 40
32.418860
 50
-90.000000
 51
0.000000
  0
ARC
  8
1
 62
7
  6
CONTINUOUS
 10
429.885640
 20
143.636826
 40
29.618872
 50
-90.000000
 51
-0.000000
  0
ARC
  8
1
 62
7
  6
CONTINUOUS
 10
429.885640
 20
143.636826
 40
24.618872
 50
-90.000000
 51
-0.000000
  0
ARC
  8
1
 62
7
  6
CONTINUOUS
 10
429.885640
 20
143.636826
 40
22.418860
 50
-90.000000
 51
0.000000
  0
ARC
  8
1
 62
7
  6
CONTINUOUS
 10
429.885640
 20
143.636826
 40
19.618872
 50
-90.000000
 51
-0.000000
  0
LINE
  8
1
 62
7
  6
CONTINUOUS
 10
431.546714
 20
111.225193
 11
420.336233
 21
111.225193
  0
LINE
  8
1
 62
7
  6
CONTINUOUS
 10
478.685629
 20
111.225193
 11
431.546714
 21
111.225193
  0
LINE
  8
1
 62
7
  6
CONTINUOUS
 10
429.885643
 20
114.025242
 11
420.336233
 21
114.025242
  0
LINE
  8
1
 62
7
  6
CONTINUOUS
 10
478.685629
 20
114.025242
 11
443.081720
 21
114.025242
  0
LINE
  8
1
 62
7
  6
CONTINUOUS
 10
478.685631
 20
116.229849
 11
447.201530
 21
116.229849
  0
LINE
  8
1
 62
7
  6
CONTINUOUS
 10
441.116631
 20
116.229849
 11
420.336233
 21
116.229849
  0
LINE
  8
1
 62
7
  6
CONTINUOUS
 10
446.371217
 20
119.029849
 11
442.382274
 21
119.029849
  0
LINE
  8
1
 62
7
  6
CONTINUOUS
 10
478.685628
 20
119.029898
 11
450.992074
 21
119.029898
  0
LINE
  8
1
 62
7
  6
CONTINUOUS
 10
431.145874
 20
119.029898
 11
420.336234
 21
119.029898
  0
LINE
  8
1
 62
7
  6
CONTINUOUS
 10
431.886619
 20
121.226598
 11
440.081386
 21
121.229849
  0
LINE
  8
1
 62
7
  6
CONTINUOUS
 10
445.862679
 20
121.229849
 11
449.252863
 21
121.227269
  0
LINE
  8
1
 62
7
  6
CONTINUOUS
 10
478.685631
 20
121.229849
 11
453.314465
 21
121.229849
  0
LINE
  8
1
 62
7
  6
CONTINUOUS
 10
444.773797
 20
124.029849
 11
440.452364
 21
124.029849
  0
LINE
  8
1
 62
7
  6
CONTINUOUS
 10
452.085774
 20
124.029849
 11
448.868339
 21
124.029849
  0
LINE
  8
1
 62
7
  6
CONTINUOUS
 10
478.685681
 20
124.029898
 11
455.703286
 21
124.029898
  0
LINE
  8
1
 62
7
  6
DASHDOT
 10
480.479999
 20
153.959998
 11
480.479999
 21
433.959689
  0
LINE
  8
1
 62
7
  6
CONTINUOUS
 10
291.715136
 20
114.029898
 11
291.715136
 21
111.229849
  0
LINE
  8
1
 62
7
  6
CONTINUOUS
 10
291.715136
 20
119.025242
 11
291.715136
 21
116.225193
  0
LINE
  8
1
 62
7
  6
CONTINUOUS
 10
291.715136
 20
124.025242
 11
291.715136
 21
121.225193
  0
LINE
  8
1
 62
7
  6
CONTINUOUS
 10
291.715131
 20
121.225193
 11
315.029277
 21
121.225193
  0
LINE
  8
1
 62
7
  6
CONTINUOUS
 10
291.715135
 20
119.025242
 11
313.534003
 21
119.025242
  0
LINE
  8
1
 62
7
  6
CONTINUOUS
 10
291.715134
 20
116.225193
 11
312.272243
 21
116.225193
  0
LINE
  8
1
 62
7
  6
CONTINUOUS
 10
291.715135
 20
114.029898
 11
312.035047
 21
114.029898
  0
LINE
  8
1
 62
7
  6
CONTINUOUS
 10
291.715135
 20
111.229849
 11
312.585517
 21
111.229849
  0
LINE
  8
1
 62
7
  6
CONTINUOUS
 10
291.715136
 20
124.025242
 11
316.720791
 21
124.025242
  0
LINE
  8
1
 62
7
  6
DASHDOT
 10
400.480000
 20
293.959998
 11
560.480000
 21
293.959998
  0
LINE
  8
1
 62
7
  6
CONTINUOUS
 10
454.479999
 20
209.500001
 11
454.479999
 21
223.899999
  0
LINE
  8
1
 62
7
  6
CONTINUOUS
 10
528.479999
 20
387.759998
 11
432.479999
 21
387.759998
  0
LINE
  8
1
 62
7
  6
CONTINUOUS
 10
532.479999
 20
391.759998
 11
428.479999
 21
391.759998
  0
LINE
  8
1
 62
7
  6
CONTINUOUS
 10
459.504512
 20
223.759998
 11
457.304500
 21
223.759998
  0
LINE
  8
1
 62
7
  6
CONTINUOUS
 10
454.504500
 20
223.759998
 11
452.304500
 21
223.759998
  0
LINE
  8
1
 62
7
  6
CONTINUOUS
 10
508.304500
 20
223.759998
 11
506.104488
 21
223.759998
  0
LINE
  8
1
 62
7
  6
CONTINUOUS
 10
503.304500
 20
223.759998
 11
501.104488
 21
223.759998
  0
LINE
  8
1
 62
7
  6
CONTINUOUS
 10
498.304500
 20
223.759998
 11
462.304500
 21
223.759998
  0
LINE
  8
1
 62
7
  6
CONTINUOUS
 10
436.479999
 20
243.360000
 11
436.479999
 21
223.759998
  0
LINE
  8
1
 62
7
  6
CONTINUOUS
 10
449.504500
 20
223.759998
 11
436.479999
 21
223.759998
  0
LINE
  8
1
 62
7
  6
CONTINUOUS
 10
524.479999
 20
223.759998
 11
511.104488
 21
223.759998
  0
LINE
  8
1
 62
7
  6
CONTINUOUS
 10
452.304500
 20
220.759998
 11
454.479999
 21
220.759998
  0
LINE
  8
1
 62
7
  6
CONTINUOUS
 10
457.304500
 20
220.759998
 11
459.504500
 21
220.759998
  0
LINE
  8
1
 62
7
  6
CONTINUOUS
 10
462.304500
 20
220.759998
 11
498.304500
 21
220.759998
  0
LINE
  8
1
 62
7
  6
CONTINUOUS
 10
501.104488
 20
220.759998
 11
503.304500
 21
220.759998
  0
LINE
  8
1
 62
7
  6
CONTINUOUS
 10
506.104488
 20
220.759998
 11
508.304500
 21
220.759998
  0
LINE
  8
1
 62
7
  6
CONTINUOUS
 10
436.479999
 20
223.759998
 11
436.479999
 21
220.759998
  0
LINE
  8
1
 62
7
  6
CONTINUOUS
 10
436.479999
 20
220.759998
 11
449.504500
 21
220.759998
  0
LINE
  8
1
 62
7
  6
CONTINUOUS
 10
524.479999
 20
220.759998
 11
524.479999
 21
223.759998
  0
LINE
  8
1
 62
7
  6
CONTINUOUS
 10
511.104488
 20
220.759998
 11
524.479999
 21
220.759998
  0
LINE
  8
1
 62
7
  6
CONTINUOUS
 10
436.479999
 20
364.159998
 11
436.479999
 21
243.360000
  0
LINE
  8
1
 62
7
  6
CONTINUOUS
 10
524.479999
 20
364.159998
 11
436.479999
 21
364.159998
  0
LINE
  8
1
 62
7
  6
CONTINUOUS
 10
436.479999
 20
364.159998
 11
524.479999
 21
364.159998
  0
LINE
  8
1
 62
7
  6
CONTINUOUS
 10
436.479999
 20
367.159998
 11
436.479999
 21
364.159998
  0
LINE
  8
1
 62
7
  6
CONTINUOUS
 10
524.479999
 20
367.159998
 11
524.479999
 21
364.159998
  0
LINE
  8
1
 62
7
  6
CONTINUOUS
 10
436.479999
 20
367.159998
 11
524.479999
 21
367.159998
  0
LINE
  8
1
 62
7
  6
CONTINUOUS
 10
524.479999
 20
364.159998
 11
524.479999
 21
223.759998
  0
LINE
  8
1
 62
7
  6
CONTINUOUS
 10
457.304500
 20
200.159998
 11
459.504500
 21
200.159998
  0
LINE
  8
1
 62
7
  6
CONTINUOUS
 10
452.304500
 20
200.159998
 11
454.504500
 21
200.159998
  0
LINE
  8
1
 62
7
  6
CONTINUOUS
 10
462.304500
 20
200.159998
 11
498.304500
 21
200.159998
  0
LINE
  8
1
 62
7
  6
CONTINUOUS
 10
501.104488
 20
200.159998
 11
503.304500
 21
200.159998
  0
LINE
  8
1
 62
7
  6
CONTINUOUS
 10
506.104488
 20
200.159998
 11
508.304500
 21
200.159998
  0
LINE
  8
1
 62
7
  6
CONTINUOUS
 10
432.479999
 20
200.159998
 11
449.504500
 21
200.159998
  0
LINE
  8
1
 62
7
  6
CONTINUOUS
 10
432.479999
 20
387.759998
 11
432.479999
 21
200.159998
  0
LINE
  8
1
 62
7
  6
CONTINUOUS
 10
511.104488
 20
200.159998
 11
528.479999
 21
200.159998
  0
LINE
  8
1
 62
7
  6
CONTINUOUS
 10
528.479999
 20
200.159998
 11
528.479999
 21
387.759998
  0
LINE
  8
1
 62
7
  6
CONTINUOUS
 10
452.304500
 20
196.159998
 11
454.504500
 21
196.159998
  0
LINE
  8
1
 62
7
  6
CONTINUOUS
 10
457.304500
 20
196.159998
 11
459.504512
 21
196.159998
  0
LINE
  8
1
 62
7
  6
CONTINUOUS
 10
506.104488
 20
196.159998
 11
508.304500
 21
196.159998
  0
LINE
  8
1
 62
7
  6
CONTINUOUS
 10
462.304500
 20
196.159998
 11
498.304500
 21
196.159998
  0
LINE
  8
1
 62
7
  6
CONTINUOUS
 10
501.104488
 20
196.159998
 11
503.304500
 21
196.159998
  0
LINE
  8
1
 62
7
  6
CONTINUOUS
 10
428.479999
 20
196.159998
 11
449.504500
 21
196.159998
  0
LINE
  8
1
 62
7
  6
CONTINUOUS
 10
428.479999
 20
391.759998
 11
428.479999
 21
196.159998
  0
LINE
  8
1
 62
7
  6
CONTINUOUS
 10
511.104488
 20
196.159998
 11
532.479999
 21
196.159998
  0
LINE
  8
1
 62
7
  6
CONTINUOUS
 10
532.479999
 20
196.159998
 11
532.479999
 21
391.759998
  0
LINE
  8
1
 62
7
  6
CONTINUOUS
 10
491.119999
 20
375.559998
 11
491.119999
 21
367.159998
  0
LINE
  8
1
 62
7
  6
CONTINUOUS
 10
494.879999
 20
375.559998
 11
491.119999
 21
375.559998
  0
LINE
  8
1
 62
7
  6
CONTINUOUS
 10
498.879999
 20
375.559998
 11
498.879999
 21
367.159998
  0
LINE
  8
1
 62
7
  6
CONTINUOUS
 10
494.879999
 20
375.559998
 11
498.879999
 21
375.559998
  0
LINE
  8
1
 62
7
  6
CONTINUOUS
 10
494.879999
 20
379.359998
 11
494.879999
 21
375.559998
  0
LINE
  8
1
 62
7
  6
CONTINUOUS
 10
505.279999
 20
379.359998
 11
505.279999
 21
367.159998
  0
LINE
  8
1
 62
7
  6
CONTINUOUS
 10
494.879999
 20
379.359998
 11
505.279999
 21
379.359998
  0
LINE
  8
1
 62
7
  6
CONTINUOUS
 10
508.779999
 20
382.859998
 11
508.779999
 21
367.159998
  0
LINE
  8
1
 62
7
  6
CONTINUOUS
 10
494.879999
 20
382.859998
 11
508.779999
 21
382.859998
  0
LINE
  8
1
 62
7
  6
CONTINUOUS
 10
494.879999
 20
387.759998
 11
494.879999
 21
382.859998
  0
LINE
  8
1
 62
7
  6
CONTINUOUS
 10
517.019999
 20
370.459998
 11
517.019999
 21
380.859998
  0
LINE
  8
1
 62
7
  6
CONTINUOUS
 10
525.319999
 20
370.459998
 11
517.019999
 21
370.459998
  0
LINE
  8
1
 62
7
  6
CONTINUOUS
 10
525.319999
 20
380.859998
 11
525.319999
 21
370.459998
  0
LINE
  8
1
 62
7
  6
CONTINUOUS
 10
517.019999
 20
380.859998
 11
525.319999
 21
380.859998
  0
LINE
  8
1
 62
7
  6
CONTINUOUS
 10
469.839999
 20
375.559998
 11
469.839999
 21
367.159998
  0
LINE
  8
1
 62
7
  6
CONTINUOUS
 10
466.079999
 20
375.559998
 11
469.839999
 21
375.559998
  0
LINE
  8
1
 62
7
  6
CONTINUOUS
 10
462.079999
 20
375.559998
 11
462.079999
 21
367.159998
  0
LINE
  8
1
 62
7
  6
CONTINUOUS
 10
466.079999
 20
375.559998
 11
462.079999
 21
375.559998
  0
LINE
  8
1
 62
7
  6
CONTINUOUS
 10
466.079999
 20
379.359998
 11
466.079999
 21
375.559998
  0
LINE
  8
1
 62
7
  6
CONTINUOUS
 10
455.679999
 20
379.359998
 11
455.679999
 21
367.159998
  0
LINE
  8
1
 62
7
  6
CONTINUOUS
 10
466.079999
 20
379.359998
 11
455.679999
 21
379.359998
  0
LINE
  8
1
 62
7
  6
CONTINUOUS
 10
452.179999
 20
382.859998
 11
452.179999
 21
367.159998
  0
LINE
  8
1
 62
7
  6
CONTINUOUS
 10
466.079999
 20
382.859998
 11
452.179999
 21
382.859998
  0
LINE
  8
1
 62
7
  6
CONTINUOUS
 10
466.079999
 20
387.759998
 11
466.079999
 21
382.859998
  0
LINE
  8
1
 62
7
  6
CONTINUOUS
 10
443.939999
 20
370.459998
 11
443.939999
 21
380.859998
  0
LINE
  8
1
 62
7
  6
CONTINUOUS
 10
435.639999
 20
370.459998
 11
443.939999
 21
370.459998
  0
LINE
  8
1
 62
7
  6
CONTINUOUS
 10
435.639999
 20
380.859998
 11
435.639999
 21
370.459998
  0
LINE
  8
1
 62
7
  6
CONTINUOUS
 10
443.939999
 20
380.859998
 11
435.639999
 21
380.859998
  0
ARC
  8
1
 62
7
  6
CONTINUOUS
 10
480.479999
 20
-93.540036
 40
503.500038
 50
84.832085
 51
95.167915
  0
ARC
  8
1
 62
7
  6
CONTINUOUS
 10
480.479999
 20
681.460036
 40
503.500038
 50
-95.167915
 51
-93.527082
  0
ARC
  8
1
 62
7
  6
CONTINUOUS
 10
480.479999
 20
681.460036
 40
503.500038
 50
-93.207906
 51
-92.957193
  0
ARC
  8
1
 62
7
  6
CONTINUOUS
 10
480.479999
 20
681.460036
 40
503.500038
 50
-92.638188
 51
-92.387596
  0
ARC
  8
1
 62
7
  6
CONTINUOUS
 10
480.479999
 20
681.460036
 40
503.500038
 50
-87.652380
 51
-87.401796
  0
ARC
  8
1
 62
7
  6
CONTINUOUS
 10
480.479999
 20
681.460036
 40
503.500038
 50
-87.082801
 51
-86.832098
  0
ARC
  8
1
 62
7
  6
CONTINUOUS
 10
480.479999
 20
681.460036
 40
503.500038
 50
-92.068730
 51
-87.971237
  0
ARC
  8
1
 62
7
  6
CONTINUOUS
 10
480.479999
 20
681.460036
 40
503.500038
 50
-86.512934
 51
-84.694276
  0
ARC
  8
1
 62
7
  6
CONTINUOUS
 10
436.838714
 20
388.990506
 40
18.999999
 50
95.167915
 51
167.645335
  0
ARC
  8
1
 62
7
  6
CONTINUOUS
 10
524.121284
 20
388.990506
 40
18.999999
 50
12.526955
 51
84.832085
  0
ARC
  8
1
 62
7
  6
CONTINUOUS
 10
-595.395121
 20
293.960000
 40
1142.375119
 50
-4.979209
 51
4.979209
  0
ARC
  8
1
 62
7
  6
CONTINUOUS
 10
524.121284
 20
198.929494
 40
18.999999
 50
-84.832085
 51
-12.526955
  0
ARC
  8
1
 62
7
  6
CONTINUOUS
 10
436.838714
 20
198.929494
 40
18.999999
 50
-167.473045
 51
-95.167915
  0
ARC
  8
1
 62
7
  6
CONTINUOUS
 10
1556.355119
 20
293.960000
 40
1142.375119
 50
175.021226
 51
-175.020791
  0
LINE
  8
1
 62
7
  6
CONTINUOUS
 10
491.119999
 20
212.359998
 11
491.119999
 21
220.759998
  0
LINE
  8
1
 62
7
  6
CONTINUOUS
 10
494.879999
 20
212.359998
 11
491.119999
 21
212.359998
  0
LINE
  8
1
 62
7
  6
CONTINUOUS
 10
494.879999
 20
208.559998
 11
494.879999
 21
212.359998
  0
LINE
  8
1
 62
7
  6
CONTINUOUS
 10
494.879999
 20
200.159998
 11
494.879999
 21
205.059998
  0
LINE
  8
1
 62
7
  6
CONTINUOUS
 10
517.019999
 20
217.459998
 11
517.019999
 21
207.059998
  0
LINE
  8
1
 62
7
  6
CONTINUOUS
 10
525.319999
 20
217.459998
 11
517.019999
 21
217.459998
  0
LINE
  8
1
 62
7
  6
CONTINUOUS
 10
525.319999
 20
207.059998
 11
525.319999
 21
217.459998
  0
LINE
  8
1
 62
7
  6
CONTINUOUS
 10
517.019999
 20
207.059998
 11
525.319999
 21
207.059998
  0
LINE
  8
1
 62
7
  6
CONTINUOUS
 10
469.839999
 20
212.359998
 11
469.839999
 21
220.759998
  0
LINE
  8
1
 62
7
  6
CONTINUOUS
 10
466.079999
 20
212.359998
 11
469.839999
 21
212.359998
  0
LINE
  8
1
 62
7
  6
CONTINUOUS
 10
466.079999
 20
208.559998
 11
466.079999
 21
212.359998
  0
LINE
  8
1
 62
7
  6
CONTINUOUS
 10
466.079999
 20
200.159998
 11
466.079999
 21
205.059998
  0
LINE
  8
1
 62
7
  6
CONTINUOUS
 10
443.939999
 20
217.459998
 11
443.939999
 21
207.059998
  0
LINE
  8
1
 62
7
  6
CONTINUOUS
 10
435.639999
 20
217.459998
 11
443.939999
 21
217.459998
  0
LINE
  8
1
 62
7
  6
CONTINUOUS
 10
435.639999
 20
207.059998
 11
435.639999
 21
217.459998
  0
LINE
  8
1
 62
7
  6
CONTINUOUS
 10
443.939999
 20
207.059998
 11
435.639999
 21
207.059998
  0
LINE
  8
1
 62
7
  6
CONTINUOUS
 10
466.079999
 20
212.359998
 11
462.304500
 21
212.359998
  0
LINE
  8
1
 62
7
  6
CONTINUOUS
 10
454.504512
 20
205.059998
 11
452.179999
 21
205.059998
  0
LINE
  8
1
 62
7
  6
CONTINUOUS
 10
466.079999
 20
205.059998
 11
462.304500
 21
205.059998
  0
LINE
  8
1
 62
7
  6
CONTINUOUS
 10
459.504512
 20
205.059998
 11
457.304500
 21
205.059998
  0
LINE
  8
1
 62
7
  6
CONTINUOUS
 10
466.079999
 20
208.559998
 11
462.304500
 21
208.559998
  0
LINE
  8
1
 62
7
  6
CONTINUOUS
 10
459.504512
 20
208.559998
 11
457.304500
 21
208.559998
  0
LINE
  8
1
 62
7
  6
CONTINUOUS
 10
494.879999
 20
212.359998
 11
498.304500
 21
212.359998
  0
LINE
  8
1
 62
7
  6
CONTINUOUS
 10
494.879999
 20
208.559998
 11
498.304500
 21
208.559998
  0
LINE
  8
1
 62
7
  6
CONTINUOUS
 10
494.879999
 20
205.059998
 11
498.304500
 21
205.059998
  0
LINE
  8
1
 62
7
  6
CONTINUOUS
 10
501.104488
 20
205.059998
 11
503.304500
 21
205.059998
  0
LINE
  8
1
 62
7
  6
CONTINUOUS
 10
501.104488
 20
208.559998
 11
503.304500
 21
208.559998
  0
LINE
  8
1
 62
7
  6
CONTINUOUS
 10
506.104488
 20
205.059998
 11
508.304500
 21
205.059998
  0
LINE
  8
1
 62
7
  6
CONTINUOUS
 10
286.715136
 20
113.729849
 11
286.715136
 21
111.529849
  0
LINE
  8
1
 62
7
  6
CONTINUOUS
 10
286.715136
 20
118.725193
 11
286.715136
 21
116.525193
  0
LINE
  8
1
 62
7
  6
CONTINUOUS
 10
286.715136
 20
123.725193
 11
286.715136
 21
121.525193
  0
LINE
  8
1
 62
7
  6
CONTINUOUS
 10
291.715136
 20
113.729849
 11
286.715136
 21
113.729849
  0
LINE
  8
1
 62
7
  6
CONTINUOUS
 10
291.715136
 20
113.729849
 11
286.715136
 21
113.729849
  0
LINE
  8
1
 62
7
  6
CONTINUOUS
 10
286.715136
 20
111.529849
 11
291.715136
 21
111.529849
  0
LINE
  8
1
 62
7
  6
CONTINUOUS
 10
291.715136
 20
118.725193
 11
286.715136
 21
118.725193
  0
LINE
  8
1
 62
7
  6
CONTINUOUS
 10
291.715136
 20
118.725193
 11
286.715136
 21
118.725193
  0
LINE
  8
1
 62
7
  6
CONTINUOUS
 10
286.715136
 20
116.525193
 11
291.715136
 21
116.525193
  0
LINE
  8
1
 62
7
  6
CONTINUOUS
 10
291.715136
 20
123.725193
 11
286.715136
 21
123.725193
  0
LINE
  8
1
 62
7
  6
CONTINUOUS
 10
291.715136
 20
123.725193
 11
286.715136
 21
123.725193
  0
LINE
  8
1
 62
7
  6
CONTINUOUS
 10
286.715136
 20
121.525193
 11
291.715136
 21
121.525193
  0
LINE
  8
1
 62
7
  6
CONTINUOUS
 10
449.504512
 20
244.786915
 11
449.504512
 21
143.636826
  0
LINE
  8
1
 62
7
  6
CONTINUOUS
 10
462.304500
 20
236.677066
 11
462.304500
 21
142.094073
  0
LINE
  8
1
 62
7
  6
CONTINUOUS
 10
452.304500
 20
242.929685
 11
452.304500
 21
143.636826
  0
LINE
  8
1
 62
7
  6
CONTINUOUS
 10
454.504512
 20
241.554677
 11
454.504512
 21
143.636826
  0
LINE
  8
1
 62
7
  6
CONTINUOUS
 10
457.304500
 20
239.804685
 11
457.304500
 21
143.636826
  0
LINE
  8
1
 62
7
  6
CONTINUOUS
 10
459.504512
 20
238.429677
 11
459.504512
 21
143.636826
  0
LINE
  8
1
 62
7
  6
CONTINUOUS
 10
498.304500
 20
236.454123
 11
498.304500
 21
143.636826
  0
LINE
  8
1
 62
7
  6
CONTINUOUS
 10
501.104488
 20
238.210304
 11
501.104488
 21
143.636826
  0
LINE
  8
1
 62
7
  6
CONTINUOUS
 10
503.304500
 20
239.585311
 11
503.304500
 21
143.636826
  0
LINE
  8
1
 62
7
  6
CONTINUOUS
 10
506.104488
 20
241.335304
 11
506.104488
 21
143.636826
  0
LINE
  8
1
 62
7
  6
CONTINUOUS
 10
508.304500
 20
242.710311
 11
508.304500
 21
143.636826
  0
LINE
  8
1
 62
7
  6
CONTINUOUS
 10
511.104488
 20
244.460304
 11
511.104488
 21
143.636826
  0
LINE
  8
1
 62
7
  6
CONTINUOUS
 10
524.479999
 20
252.819998
 11
489.279999
 21
230.819998
  0
LINE
  8
1
 62
7
  6
CONTINUOUS
 10
471.679999
 20
230.819998
 11
436.479999
 21
252.819998
  0
LINE
  8
1
 62
7
  6
CONTINUOUS
 10
489.279999
 20
230.819998
 11
471.679999
 21
230.819998
  0
LINE
  8
1
 62
7
  6
CONTINUOUS
 10
535.843287
 20
223.694380
 11
543.962588
 21
223.694380
  0
LINE
  8
1
 62
7
  6
CONTINUOUS
 10
540.784592
 20
123.714481
 11
540.784592
 21
120.561910
  0
ARC
  8
1
 62
7
  6
CONTINUOUS
 10
510.784592
 20
120.576200
 40
30.000000
 50
-90.000000
 51
0.000000
  0
LINE
  8
15
 62
96
  6
CONTINUOUS
 10
620.173997
 20
511.141852
 11
800.227081
 21
511.141852
  0
TEXT
  8
15
 62
96
  6
DIVIDE
 10
636.178716
 20
513.642589
 40
6.001769
 41
0.833333
  1
材　質
  7
KANJI
 50
0.000000
 51
0.000000
  0
TEXT
  8
15
 62
96
  6
DIVIDE
 10
717.202604
 20
502.639345
 40
6.001769
 41
0.833333
  1
ライトグレー
  7
KANJI
 50
0.000000
 51
0.000000
  0
TEXT
  8
15
 62
96
  6
DIVIDE
 10
726.205258
 20
513.642589
 40
6.001769
 41
0.833333
  1
樹　脂
  7
KANJI
 50
0.000000
 51
0.000000
  0
LINE
  8
15
 62
96
  6
CONTINUOUS
 10
620.173997
 20
456.125632
 11
800.227081
 21
456.125632
  0
LINE
  8
15
 62
96
  6
CONTINUOUS
 10
620.173997
 20
478.132120
 11
800.227081
 21
478.132120
  0
LINE
  8
15
 62
96
  6
CONTINUOUS
 10
620.173997
 20
467.128876
 11
800.227081
 21
467.128876
  0
TEXT
  8
15
 62
96
  6
DIVIDE
 10
636.178716
 20
480.632857
 40
6.001769
 41
0.833333
  1
重　量
  7
KANJI
 50
0.000000
 51
0.000000
  0
TEXT
  8
15
 62
96
  6
DIVIDE
 10
636.178716
 20
469.629613
 40
6.001769
 41
0.833333
  1
電　源
  7
KANJI
 50
0.000000
 51
0.000000
  0
TEXT
  8
15
 62
96
  6
DIVIDE
 10
627.176062
 20
458.626369
 40
6.001769
 41
0.833333
  1
使用環境温度
  7
KANJI
 50
0.000000
 51
0.000000
  0
TEXT
  8
15
 62
96
  6
CONTINUOUS
 10
633.177831
 20
447.623125
 40
6.001769
 41
0.833333
  1
設置場所
  7
KANJI
 50
0.000000
 51
0.000000
  0
TEXT
  8
15
 62
96
  6
DIVIDE
 10
705.188853
 20
469.571715
 40
6.001769
 41
0.833333
  1
電気錠制御盤より供給
  7
KANJI
 50
0.000000
 51
0.000000
  0
TEXT
  8
15
 62
96
  6
CONTINUOUS
 10
726.205258
 20
447.623125
 40
6.001769
 41
0.833333
  1
屋　内
  7
KANJI
 50
0.000000
 51
0.000000
  0
TEXT
  8
15
 62
96
  6
CONTINUOUS
 10
662.186384
 20
436.619881
 40
6.001769
 41
0.833333
  1
１コ用スイッチボックスに取付可能
  7
KANJI
 50
0.000000
 51
0.000000
  0
LINE
  8
15
 62
96
  6
CONTINUOUS
 10
620.173997
 20
434.119144
 11
800.227081
 21
434.119144
  0
TEXT
  8
15
 62
96
  6
DIVIDE
 10
696.260698
 20
458.626415
 40
6.001769
 41
0.792683
  1
０℃～40℃（結露なきこと）
  7
KANJI
 50
0.000000
 51
0.000000
  0
TEXT
  8
15
 62
96
  6
DIVIDE
 10
726.201246
 20
480.569715
 40
6.001769
 41
0.681818
  1
約70ｇ
  7
KANJI
 50
0.000000
 51
0.000000
  0
LINE
  8
15
 62
96
  6
CONTINUOUS
 10
620.173997
 20
489.135364
 11
800.227600
 21
489.135364
  0
LINE
  8
15
 62
96
  6
CONTINUOUS
 10
645.039656
 20
511.141852
 11
645.039656
 21
489.135364
  0
LINE
  8
15
 62
96
  6
CONTINUOUS
 10
800.227081
 20
500.138608
 11
645.039656
 21
500.138608
  0
TEXT
  8
15
 62
96
  6
CONTINUOUS
 10
648.072485
 20
502.640230
 40
6.000000
 41
0.944444
  1
本　体
  7
KANJI
 50
0.000000
 51
0.000000
  0
TEXT
  8
15
 62
96
  6
CONTINUOUS
 10
648.072485
 20
491.136986
 40
6.000000
 41
0.944444
  1
文　字
  7
KANJI
 50
0.000000
 51
0.000000
  0
TEXT
  8
15
 62
96
  6
DIVIDE
 10
726.205258
 20
491.636101
 40
6.001769
 41
0.833333
  1
黒　色
  7
KANJI
 50
0.000000
 51
0.000000
  0
LINE
  8
15
 62
96
  6
CONTINUOUS
 10
669.905314
 20
522.147638
 11
669.905314
 21
445.122388
  0
TEXT
  8
15
 62
96
  6
DIVIDE
 10
623.604172
 20
497.137723
 40
6.001769
 41
0.833333
  1
彩　色
  7
KANJI
 50
0.000000
 51
0.000000
  0
LINE
  8
15
 62
96
  6
CONTINUOUS
 10
620.173997
 20
445.122388
 11
800.227081
 21
445.122388
  0
TEXT
  8
15
 62
96
  6
CONTINUOUS
 10
415.147400
 20
39.689300
 40
6.000000
 41
0.944444
  1
＊　記載されている会社名、製品名は、登録商標または商標です。
  7
KANJI
 50
0.000000
 51
0.000000
  0
LINE
  8
1
 62
7
  6
CONTINUOUS
 10
442.725603
 20
236.019999
 11
444.725603
 21
236.019999
  0
LINE
  8
1
 62
7
  6
CONTINUOUS
 10
445.725603
 20
239.019999
 11
448.125597
 21
239.019999
  0
LINE
  8
1
 62
7
  6
CONTINUOUS
 10
445.725603
 20
230.619998
 11
448.125597
 21
230.619998
  0
LINE
  8
1
 62
7
  6
CONTINUOUS
 10
445.725603
 20
239.019999
 11
445.725603
 21
237.019999
  0
LINE
  8
1
 62
7
  6
CONTINUOUS
 10
442.725603
 20
233.619998
 11
444.725603
 21
233.619998
  0
LINE
  8
1
 62
7
  6
CONTINUOUS
 10
448.125597
 20
232.619998
 11
448.125597
 21
230.619998
  0
LINE
  8
1
 62
7
  6
CONTINUOUS
 10
445.725603
 20
232.619998
 11
445.725603
 21
230.619998
  0
LINE
  8
1
 62
7
  6
CONTINUOUS
 10
442.725603
 20
236.019999
 11
442.725603
 21
233.619998
  0
LINE
  8
1
 62
7
  6
CONTINUOUS
 10
448.125597
 20
239.019999
 11
448.125597
 21
237.019999
  0
ARC
  8
1
 62
7
  6
CONTINUOUS
 10
449.125597
 20
232.619998
 40
1.000000
 50
90.000000
 51
180.000000
  0
ARC
  8
1
 62
7
  6
CONTINUOUS
 10
444.725603
 20
237.019999
 40
1.000000
 50
-90.000000
 51
0.000000
  0
ARC
  8
1
 62
7
  6
CONTINUOUS
 10
449.125597
 20
237.019999
 40
1.000000
 50
180.000000
 51
-90.000000
  0
ARC
  8
1
 62
7
  6
CONTINUOUS
 10
444.725603
 20
232.619998
 40
1.000000
 50
0.000000
 51
90.000000
  0
CIRCLE
  8
1
 62
7
  6
CONTINUOUS
 10
446.925600
 20
260.819999
 40
5.200000
  0
LINE
  8
1
 62
7
  6
CONTINUOUS
 10
451.125597
 20
262.019999
 11
451.125597
 21
259.619998
  0
LINE
  8
1
 62
7
  6
CONTINUOUS
 10
442.725603
 20
262.019999
 11
444.725603
 21
262.019999
  0
LINE
  8
1
 62
7
  6
CONTINUOUS
 10
445.725603
 20
265.019999
 11
448.125597
 21
265.019999
  0
LINE
  8
1
 62
7
  6
CONTINUOUS
 10
445.725603
 20
256.619998
 11
448.125597
 21
256.619998
  0
LINE
  8
1
 62
7
  6
CONTINUOUS
 10
445.725603
 20
265.019999
 11
445.725603
 21
263.019999
  0
LINE
  8
1
 62
7
  6
CONTINUOUS
 10
442.725603
 20
259.619998
 11
444.725603
 21
259.619998
  0
LINE
  8
1
 62
7
  6
CONTINUOUS
 10
448.125597
 20
258.619998
 11
448.125597
 21
256.619998
  0
LINE
  8
1
 62
7
  6
CONTINUOUS
 10
445.725603
 20
258.619998
 11
445.725603
 21
256.619998
  0
LINE
  8
1
 62
7
  6
CONTINUOUS
 10
449.125597
 20
259.619998
 11
451.125597
 21
259.619998
  0
LINE
  8
1
 62
7
  6
CONTINUOUS
 10
442.725603
 20
262.019999
 11
442.725603
 21
259.619998
  0
LINE
  8
1
 62
7
  6
CONTINUOUS
 10
449.125597
 20
262.019999
 11
451.125597
 21
262.019999
  0
LINE
  8
1
 62
7
  6
CONTINUOUS
 10
448.125597
 20
265.019999
 11
448.125597
 21
263.019999
  0
ARC
  8
1
 62
7
  6
CONTINUOUS
 10
449.125597
 20
258.619998
 40
1.000000
 50
90.000000
 51
180.000000
  0
ARC
  8
1
 62
7
  6
CONTINUOUS
 10
444.725603
 20
263.019999
 40
1.000000
 50
-90.000000
 51
0.000000
  0
ARC
  8
1
 62
7
  6
CONTINUOUS
 10
449.125597
 20
263.019999
 40
1.000000
 50
180.000000
 51
-90.000000
  0
ARC
  8
1
 62
7
  6
CONTINUOUS
 10
444.725603
 20
258.619998
 40
1.000000
 50
0.000000
 51
90.000000
  0
CIRCLE
  8
1
 62
7
  6
CONTINUOUS
 10
513.994000
 20
260.819999
 40
5.200000
  0
LINE
  8
1
 62
7
  6
CONTINUOUS
 10
518.193997
 20
262.019999
 11
518.193997
 21
259.619998
  0
LINE
  8
1
 62
7
  6
CONTINUOUS
 10
509.794003
 20
262.019999
 11
511.794003
 21
262.019999
  0
LINE
  8
1
 62
7
  6
CONTINUOUS
 10
512.794003
 20
265.019999
 11
515.193997
 21
265.019999
  0
LINE
  8
1
 62
7
  6
CONTINUOUS
 10
512.794003
 20
256.619998
 11
515.193997
 21
256.619998
  0
LINE
  8
1
 62
7
  6
CONTINUOUS
 10
512.794003
 20
265.019999
 11
512.794003
 21
263.019999
  0
LINE
  8
1
 62
7
  6
CONTINUOUS
 10
509.794003
 20
259.619998
 11
511.794003
 21
259.619998
  0
LINE
  8
1
 62
7
  6
CONTINUOUS
 10
515.193997
 20
258.619998
 11
515.193997
 21
256.619998
  0
LINE
  8
1
 62
7
  6
CONTINUOUS
 10
512.794003
 20
258.619998
 11
512.794003
 21
256.619998
  0
LINE
  8
1
 62
7
  6
CONTINUOUS
 10
516.193997
 20
259.619998
 11
518.193997
 21
259.619998
  0
LINE
  8
1
 62
7
  6
CONTINUOUS
 10
509.794003
 20
262.019999
 11
509.794003
 21
259.619998
  0
LINE
  8
1
 62
7
  6
CONTINUOUS
 10
516.193997
 20
262.019999
 11
518.193997
 21
262.019999
  0
LINE
  8
1
 62
7
  6
CONTINUOUS
 10
515.193997
 20
265.019999
 11
515.193997
 21
263.019999
  0
ARC
  8
1
 62
7
  6
CONTINUOUS
 10
516.193997
 20
258.619998
 40
1.000000
 50
90.000000
 51
180.000000
  0
ARC
  8
1
 62
7
  6
CONTINUOUS
 10
511.794003
 20
263.019999
 40
1.000000
 50
-90.000000
 51
0.000000
  0
ARC
  8
1
 62
7
  6
CONTINUOUS
 10
516.193997
 20
263.019999
 40
1.000000
 50
180.000000
 51
-90.000000
  0
ARC
  8
1
 62
7
  6
CONTINUOUS
 10
511.794003
 20
258.619998
 40
1.000000
 50
0.000000
 51
90.000000
  0
LINE
  8
1
 62
7
  6
CONTINUOUS
 10
518.193997
 20
236.019999
 11
518.193997
 21
233.619998
  0
LINE
  8
1
 62
7
  6
CONTINUOUS
 10
512.794003
 20
239.019999
 11
515.193997
 21
239.019999
  0
LINE
  8
1
 62
7
  6
CONTINUOUS
 10
512.794003
 20
230.619998
 11
515.193997
 21
230.619998
  0
LINE
  8
1
 62
7
  6
CONTINUOUS
 10
512.794003
 20
239.019999
 11
512.794003
 21
237.019999
  0
LINE
  8
1
 62
7
  6
CONTINUOUS
 10
515.193997
 20
232.619998
 11
515.193997
 21
230.619998
  0
LINE
  8
1
 62
7
  6
CONTINUOUS
 10
512.794003
 20
232.619998
 11
512.794003
 21
230.619998
  0
LINE
  8
1
 62
7
  6
CONTINUOUS
 10
516.193997
 20
233.619998
 11
518.193997
 21
233.619998
  0
LINE
  8
1
 62
7
  6
CONTINUOUS
 10
516.193997
 20
236.019999
 11
518.193997
 21
236.019999
  0
LINE
  8
1
 62
7
  6
CONTINUOUS
 10
515.193997
 20
239.019999
 11
515.193997
 21
237.019999
  0
ARC
  8
1
 62
7
  6
CONTINUOUS
 10
516.193997
 20
232.619998
 40
1.000000
 50
90.000000
 51
180.000000
  0
ARC
  8
1
 62
7
  6
CONTINUOUS
 10
511.794003
 20
237.019999
 40
1.000000
 50
-90.000000
 51
0.000000
  0
ARC
  8
1
 62
7
  6
CONTINUOUS
 10
516.193997
 20
237.019999
 40
1.000000
 50
180.000000
 51
-90.000000
  0
ARC
  8
1
 62
7
  6
CONTINUOUS
 10
511.794003
 20
232.619998
 40
1.000000
 50
0.000000
 51
90.000000
  0
CIRCLE
  8
1
 62
7
  6
CONTINUOUS
 10
513.994000
 20
316.829599
 40
5.200000
  0
LINE
  8
1
 62
7
  6
CONTINUOUS
 10
518.193997
 20
318.029600
 11
518.193997
 21
315.629598
  0
LINE
  8
1
 62
7
  6
CONTINUOUS
 10
509.794003
 20
318.029600
 11
511.794003
 21
318.029600
  0
LINE
  8
1
 62
7
  6
CONTINUOUS
 10
512.794003
 20
321.029600
 11
515.193997
 21
321.029600
  0
LINE
  8
1
 62
7
  6
CONTINUOUS
 10
512.794003
 20
312.629598
 11
515.193997
 21
312.629598
  0
LINE
  8
1
 62
7
  6
CONTINUOUS
 10
512.794003
 20
321.029600
 11
512.794003
 21
319.029600
  0
LINE
  8
1
 62
7
  6
CONTINUOUS
 10
509.794003
 20
315.629598
 11
511.794003
 21
315.629598
  0
LINE
  8
1
 62
7
  6
CONTINUOUS
 10
515.193997
 20
314.629598
 11
515.193997
 21
312.629598
  0
LINE
  8
1
 62
7
  6
CONTINUOUS
 10
512.794003
 20
314.629598
 11
512.794003
 21
312.629598
  0
LINE
  8
1
 62
7
  6
CONTINUOUS
 10
516.193997
 20
315.629598
 11
518.193997
 21
315.629598
  0
LINE
  8
1
 62
7
  6
CONTINUOUS
 10
509.794003
 20
318.029600
 11
509.794003
 21
315.629598
  0
LINE
  8
1
 62
7
  6
CONTINUOUS
 10
516.193997
 20
318.029600
 11
518.193997
 21
318.029600
  0
LINE
  8
1
 62
7
  6
CONTINUOUS
 10
515.193997
 20
321.029600
 11
515.193997
 21
319.029600
  0
ARC
  8
1
 62
7
  6
CONTINUOUS
 10
516.193997
 20
314.629598
 40
1.000000
 50
90.000000
 51
180.000000
  0
ARC
  8
1
 62
7
  6
CONTINUOUS
 10
511.794003
 20
319.029600
 40
1.000000
 50
-90.000000
 51
0.000000
  0
ARC
  8
1
 62
7
  6
CONTINUOUS
 10
516.193997
 20
319.029600
 40
1.000000
 50
180.000000
 51
-90.000000
  0
ARC
  8
1
 62
7
  6
CONTINUOUS
 10
511.794003
 20
314.629598
 40
1.000000
 50
0.000000
 51
90.000000
  0
CIRCLE
  8
1
 62
7
  6
CONTINUOUS
 10
446.925600
 20
354.819999
 40
5.200000
  0
LINE
  8
1
 62
7
  6
CONTINUOUS
 10
451.125597
 20
356.019999
 11
451.125597
 21
353.619998
  0
LINE
  8
1
 62
7
  6
CONTINUOUS
 10
442.725603
 20
356.019999
 11
444.725603
 21
356.019999
  0
LINE
  8
1
 62
7
  6
CONTINUOUS
 10
445.725603
 20
359.019999
 11
448.125597
 21
359.019999
  0
LINE
  8
1
 62
7
  6
CONTINUOUS
 10
445.725603
 20
350.619998
 11
448.125597
 21
350.619998
  0
LINE
  8
1
 62
7
  6
CONTINUOUS
 10
445.725603
 20
359.019999
 11
445.725603
 21
357.019999
  0
LINE
  8
1
 62
7
  6
CONTINUOUS
 10
442.725603
 20
353.619998
 11
444.725603
 21
353.619998
  0
LINE
  8
1
 62
7
  6
CONTINUOUS
 10
448.125597
 20
352.619998
 11
448.125597
 21
350.619998
  0
LINE
  8
1
 62
7
  6
CONTINUOUS
 10
445.725603
 20
352.619998
 11
445.725603
 21
350.619998
  0
LINE
  8
1
 62
7
  6
CONTINUOUS
 10
449.125597
 20
353.619998
 11
451.125597
 21
353.619998
  0
LINE
  8
1
 62
7
  6
CONTINUOUS
 10
442.725603
 20
356.019999
 11
442.725603
 21
353.619998
  0
LINE
  8
1
 62
7
  6
CONTINUOUS
 10
449.125597
 20
356.019999
 11
451.125597
 21
356.019999
  0
LINE
  8
1
 62
7
  6
CONTINUOUS
 10
448.125597
 20
359.019999
 11
448.125597
 21
357.019999
  0
ARC
  8
1
 62
7
  6
CONTINUOUS
 10
449.125597
 20
352.619998
 40
1.000000
 50
90.000000
 51
180.000000
  0
ARC
  8
1
 62
7
  6
CONTINUOUS
 10
444.725603
 20
357.019999
 40
1.000000
 50
-90.000000
 51
0.000000
  0
ARC
  8
1
 62
7
  6
CONTINUOUS
 10
449.125597
 20
357.019999
 40
1.000000
 50
180.000000
 51
-90.000000
  0
ARC
  8
1
 62
7
  6
CONTINUOUS
 10
444.725603
 20
352.619998
 40
1.000000
 50
0.000000
 51
90.000000
  0
ARC
  8
1
 62
7
  6
CONTINUOUS
 10
446.925600
 20
234.819999
 40
5.200000
 50
60.267940
 51
-60.267940
  0
LINE
  8
1
 62
7
  6
CONTINUOUS
 10
449.125597
 20
236.019999
 11
449.504512
 21
236.019999
  0
LINE
  8
1
 62
7
  6
CONTINUOUS
 10
449.125597
 20
233.619998
 11
449.504512
 21
233.619998
  0
LINE
  8
1
 62
7
  6
CONTINUOUS
 10
511.104488
 20
236.019999
 11
511.794003
 21
236.019999
  0
LINE
  8
1
 62
7
  6
CONTINUOUS
 10
511.104488
 20
233.619998
 11
511.794003
 21
233.619998
  0
ARC
  8
1
 62
7
  6
CONTINUOUS
 10
513.994000
 20
234.819999
 40
5.200000
 50
-123.757250
 51
123.757250
  0
LINE
  8
1
 62
7
  6
CONTINUOUS
 10
540.784592
 20
223.694380
 11
540.784592
 21
123.714481
  0
LINE
  8
1
 62
7
  6
CONTINUOUS
 10
540.784592
 20
223.694380
 11
542.026923
 21
219.057936
  0
LINE
  8
1
 62
7
  6
CONTINUOUS
 10
540.784592
 20
223.694380
 11
539.542261
 21
219.057936
  0
LINE
  8
1
 62
7
  6
CONTINUOUS
 10
286.715136
 20
90.576200
 11
354.936234
 21
90.576200
  0
LINE
  8
1
 62
7
  6
CONTINUOUS
 10
286.715136
 20
86.576200
 11
286.715136
 21
100.356200
  0
LINE
  8
1
 62
7
  6
CONTINUOUS
 10
354.936234
 20
86.576200
 11
354.936234
 21
100.356200
  0
LINE
  8
1
 62
7
  6
CONTINUOUS
 10
286.715136
 20
90.576200
 11
291.351580
 21
91.818531
  0
LINE
  8
1
 62
7
  6
CONTINUOUS
 10
286.715136
 20
90.576200
 11
291.351580
 21
89.333869
  0
LINE
  8
1
 62
7
  6
CONTINUOUS
 10
354.936234
 20
90.576200
 11
350.299790
 21
89.333869
  0
LINE
  8
1
 62
7
  6
CONTINUOUS
 10
354.936234
 20
90.576200
 11
350.299790
 21
91.818531
  0
TEXT
  8
1
 62
7
  6
CONTINUOUS
 10
309.325685
 20
91.576200
 40
6.000000
 41
0.639785
  1
135±10
  7
KANJI
 50
0.000000
 51
0.000000
  0
ARC
  8
1
 62
7
  6
CONTINUOUS
 10
485.479999
 20
377.485920
 40
5.000000
 50
-90.000000
 51
90.000000
  0
LINE
  8
1
 62
7
  6
CONTINUOUS
 10
480.479999
 20
382.485920
 11
485.479999
 21
382.485920
  0
LINE
  8
1
 62
7
  6
CONTINUOUS
 10
485.479999
 20
372.485920
 11
480.479999
 21
372.485920
  0
ARC
  8
1
 62
7
  6
CONTINUOUS
 10
475.479999
 20
377.485920
 40
5.000000
 50
90.000000
 51
-90.000000
  0
LINE
  8
1
 62
7
  6
CONTINUOUS
 10
480.479999
 20
382.485920
 11
475.479999
 21
382.485920
  0
LINE
  8
1
 62
7
  6
CONTINUOUS
 10
475.479999
 20
372.485920
 11
480.479999
 21
372.485920
  0
LINE
  8
1
 62
7
  6
DASHDOT
 10
467.979742
 20
377.485920
 11
493.000342
 21
377.485920
  0
ARC
  8
1
 62
7
  6
CONTINUOUS
 10
485.479999
 20
210.434076
 40
5.000000
 50
-90.000000
 51
90.000000
  0
LINE
  8
1
 62
7
  6
CONTINUOUS
 10
480.479999
 20
205.434076
 11
485.479999
 21
205.434076
  0
LINE
  8
1
 62
7
  6
CONTINUOUS
 10
485.479999
 20
215.434076
 11
480.479999
 21
215.434076
  0
ARC
  8
1
 62
7
  6
CONTINUOUS
 10
475.479999
 20
210.434076
 40
5.000000
 50
90.000000
 51
-90.000000
  0
LINE
  8
1
 62
7
  6
CONTINUOUS
 10
480.479999
 20
205.434076
 11
475.479999
 21
205.434076
  0
LINE
  8
1
 62
7
  6
CONTINUOUS
 10
475.479999
 20
215.434076
 11
480.479999
 21
215.434076
  0
LINE
  8
1
 62
7
  6
DASHDOT
 10
467.979742
 20
210.434076
 11
493.000342
 21
210.434076
  0
LINE
  8
1
 62
7
  6
CONTINUOUS
 10
587.106142
 20
377.485920
 11
587.106142
 21
210.434076
  0
LINE
  8
1
 62
7
  6
CONTINUOUS
 10
591.106142
 20
377.485920
 11
497.000342
 21
377.485920
  0
LINE
  8
1
 62
7
  6
CONTINUOUS
 10
591.106142
 20
210.434076
 11
497.000342
 21
210.434076
  0
LINE
  8
1
 62
7
  6
CONTINUOUS
 10
587.106142
 20
377.485920
 11
588.348473
 21
372.849476
  0
LINE
  8
1
 62
7
  6
CONTINUOUS
 10
587.106142
 20
377.485920
 11
585.863810
 21
372.849476
  0
LINE
  8
1
 62
7
  6
CONTINUOUS
 10
587.106142
 20
210.434076
 11
585.863810
 21
215.070520
  0
LINE
  8
1
 62
7
  6
CONTINUOUS
 10
587.106142
 20
210.434076
 11
588.348473
 21
215.070520
  0
TEXT
  8
1
 62
7
  6
CONTINUOUS
 10
586.106142
 20
287.359998
 40
6.000000
 41
0.629630
  1
83.5
  7
KANJI
 50
90.000000
 51
0.000000
  0
LINE
  8
1
 62
7
  6
CONTINUOUS
 10
420.226019
 20
90.576200
 11
510.784592
 21
90.576200
  0
TEXT
  8
1
 62
7
  6
CONTINUOUS
 10
457.321200
 20
91.576200
 40
6.000000
 41
0.653846
  1
45±10
  7
KANJI
 50
0.000000
 51
0.000000
  0
LINE
  8
1
 62
7
  6
CONTINUOUS
 10
420.226019
 20
90.576200
 11
424.862463
 21
91.818531
  0
LINE
  8
1
 62
7
  6
CONTINUOUS
 10
420.226019
 20
90.576200
 11
424.862463
 21
89.333869
  0
ARC
  8
1
 62
7
  6
CONTINUOUS
 10
340.732169
 20
122.336212
 40
23.977129
 50
-149.063110
 51
-125.466397
  0
ARC
  8
1
 62
7
  6
CONTINUOUS
 10
327.429192
 20
114.226337
 40
8.398295
 50
142.551813
 51
-149.862302
  0
ARC
  8
1
 62
7
  6
CONTINUOUS
 10
272.817165
 20
152.790727
 40
58.464623
 50
-34.909041
 51
-25.237326
  0
ARC
  8
1
 62
7
  6
CONTINUOUS
 10
333.709299
 20
122.311578
 40
23.943797
 50
-149.140288
 51
-125.456028
  0
ARC
  8
1
 62
7
  6
CONTINUOUS
 10
320.453471
 20
114.230769
 40
8.420820
 50
142.367339
 51
-150.074937
  0
ARC
  8
1
 62
7
  6
CONTINUOUS
 10
267.602610
 20
151.741053
 40
56.395979
 50
-35.026241
 51
-24.975685
  0
ENDSEC
  0
EOF
